Artist: Someone 
Song: Future of Forestry 
Album: Young Man Follow 
Tuning: Standard 

Intro/Hook 

Lead Guitar 1 

e |----------------------------------| 
B |--5--7--9--5-5--5--7--9?7h9-7p5---| 
G |----------------------------------| 
D |----------------------------------| 
A |----------------------------------|   
E |----------------------------------| 

Lead Guitar 2 

e |-------------------------------------------------------------------| 
B |----5---5----5---5---4-----4-----4-----4-----2----2----2----2---2--| 
G |-------------------------------------------------------------------| 
D |--6---6---6----6--------------------------2----2-----2----2----2---| 
A |-------------------6----6----6-----6-------------------------------|          
E |-------------------------------------------------------------------| 

Rhythm Guitar 

e |--x---x-----x----------| 
B |--x---x-----x----------| 
G |--9---x-----6----------| 
D |--9---6-----6----------| 
A |--7---6-----4----------|      
E |--x---4-----x----------| 

verse 1 

Lead Guitar 1 

e |----------------------------------| 
B |--5--7--9--5-5--5--7--9?7h9-7p5---| 
G |----------------------------------| 
D |----------------------------------| 
A |----------------------------------|   
E |----------------------------------| 

Lead Guitar 2 

e |-------------------------------------------------------------------| 
B |----5---5----5---5---4-----4-----4-----4-----2----2----2----2---2--| 
G |-------------------------------------------------------------------| 
D |--6---6---6----6--------------------------2----2-----2----2----2---| 
A |-------------------6----6----6-----6-------------------------------|          
E |-------------------------------------------------------------------| 

Rhythm Guitar 

e |--x---x-----x----------| 
B |--x---x-----x----------| 
G |--9---x-----6----------| 
D |--9---6-----6----------| 
A |--7---6-----4----------|      
E |--x---4-----x----------| 


Turn my head 
Break my heart with mercy 
Just move my feet 
Move my hands, grow so gently 

Mmm for love is still in me 
We?ll hunger and we?ll bleed 
We?ve seen how this is ours 

Chorus 

Lead Guitar 

e |----------------------------------------------| 
B |-5----5----4---5----5----4-----7---5-----0----| 
G |----------------------------------------------| 
D |---6----6----6----6----6----6---------6-------| 
A |----------------------------------------------|       
E |----------------------------------------------| 


Rhythm Guitar 

e |--x---x-----x----x------| 
B |--x---x-----x----x------| 
G |--9---x-----6----x------| 
D |--9---6-----6----7------| 
A |--7---6-----4----7------|     
E |--x---4-----x----5------| 

Cause you're someone 
You're someone I can trust 
And you're someone 
To light the way for us 

verse 2 

Rest my head 
In your arms, so softly 
Just let your breath 
Breathe its sweetness 
Around me 

Mmm for love is still in me 
We?ll hunger and we?ll bleed 
But rising from our dust 
We?ve seen how this is ours 

Chorus (x2) 

Outro 

e |----------------------------------------------| 
B |-5----5----4---5----5----4-----7---5-----0----| 
G |----------------------------------------------| 
D |---6----6----6----6----6----6---------6-------| 
A |----------------------------------------------|       
E |----------------------------------------------| 

Compartilhe esta música: novo

QR Code
Copiar