Jesus Humilha Satanás

Furo Mtv

Intro: 

 
E|--------------------------------------------------| 
B|--------------------------------------------------| 
G|--------------------------------------------------| 
D|--------------------------------------------------| 
A|---------------------------1----------------------| 
E|1---3----4---------3------------------------------| 
 

(Repete isso durante a música com bastante ganho/drive com volume baixo e use reverb) 

Caso queria colocar mais peso na base do solo faça assim: 

 
E|--------------------------------------------------| 
B|--------------------------------------------------| 
G|---------------------------3----------------------| 
D|3---5----6---------5-------3----------------------| 
A|3---5----6---------5-------1----------------------| 
E|1---3----4---------3------------------------------| 
 

Solo: 

 
E|--------------------------------------------------| 
B|----------12-10-----------------------------------| 
G|-11-11-11-------11-9-7-4b--4/14-14/11b--11/9-9b---| 
D|--------------------------------------------------| 
A|--------------------------------------------------| 
E|--------------------------------------------------| 
 

 
E|--------------------------------------------------| 
B|--------------------------------------------------| 
G|--14b--14--14--11---------------------------------| 
D|--14b-------------14--12--9b----------------------| 
A|--------------------------------------------------| 
E|--------------------------------------------------| 
 

 
E|--------------------------------------------------| 
B|------------------------------------------7b------| 
G|--11-11-13-14-13-11-9-7-9----------7-9-10---------| 
D|----------------------------7-9-10----------------| 
A|---9--9-11-12-11--9-7-5-7-------------------------| 
E|--------------------------------------------------| 
 

 
E|--------------------------------------------------| 
B|-9/10--10b--9--10b--10--10H-----------------------| 
G|--------------------------------------------------| 
D|--------------------------------------------------| 
A|--------------------------------------------------| 
E|--------------------------------------------------| 
 

Compartilhe esta música: novo

QR Code
Copiar