Sensei Vs Sensei

Fu Manchu

Tom: G
 

Tuning :open G 

E=D 
B=B 
G=G 
D=D 
A=G 
E=D 

INTRO/Verse:(you will need a guitar slide, 
if you don't have one you can use a shot glass or something 
That will fit around your finger) 


Place the slide lightly over the fret 
D|--------\10----------\10----| 
B|-/15--/8\10---/15--/8\10----| 
G|-/15--/8\10---/15--/8\10----| 
D|----------------------------| 
G|----------------------------| 
D|----------------------------| 
(Strum 15 then slide past 10 to 8, strum 8 and slide to 10 quickly 


Chorus: 
  ( SENSEI VS SENSEI PART) 
D|---------------------------| 
B|---------------------------| 
G|---------------------------| 
D|-3--0-----5-----3--0-----0-| 
G|-5--2-----5-----5--2-----2-| 
D|-3--0-----------3--0-----0-| 

Guitar 1:                Guitar 2: 
D|----------             D|------------| 
B|----------             B|-------6----| 
G|--0--3--0-             G|--5--7---7--| 
D|5---------             D|------------| 
G|----------             G|------------| 
D|----------             D|------------| 

VERSE2: 
D|-------\10--------\10--------| 
B|-15--/8\10--15--/8\10--/22---|(22 on the last time) 
G|-15--/8\10--15--/8\10--/22---| 
D|-----------------------------| 
G|-----------------------------| 
D|-----------------------------| 

Chorus2: 

D|---------------------------| 
B|---------------------------| 
G|---------------------------| 
D|-3--0-----5-----3--0-----0-| 
G|-5--2-----5-----5--2-----2-| 
D|-3--0-----------3--0-----0-| 

Guitar 1:                Guitar 2: 
D|----------             D|------------| 
B|----------             B|-------6----| 
G|--0--3--0-             G|--5--7---7--| 
D|5---------             D|------------| 
G|----------             G|------------| 
D|----------             D|------------| 

INTERLUDE/OUTRO: 

D|---------------------------------------------| 
B|---------------------------------------------| 
G|----------7--8-8-----------------------------| 
D|--3--5-5--7--8-8---5--7--8---10--8---7--5--3-| 
G|--5--7-7-----------7--9--10--12--10--9--7--5-| 
D|--3--5-5-----------5--7--8---10--8---7--5--3-| 

LYRICS: 
Sensei versus sensei 
Alls been laid to rest 
Sensei versus sensei 
Control is success 
Sensei versus sensei 
My days just begun 
Sensei versus sensei 
Tell me who won 

Compartilhe esta música: novo

QR Code
Copiar