Hino Nacional Brasileiro

Francisco Manuel da Silva

HINO  NACIONAL  BRASILEIRO 


INTRODUÇÃO 


e---------------------------------------------------------------------------------------| 
B---------------------------------------------------------------------------------------| 
G-------------------------------------------9~------------------------------------------| 
D--------------------------6--6-5h6p5h6--9----------------------------------------------| 
A-------------7--7-6h7p6h7---------------------------7--6--9--7--11--9--12--11--8--9~---| 
E--7--6h7p6h7----------------------------------7--7-------------------------------------| 






e---------------------------------------------------------------------------------------| 
B---------------------------------------------------------------------------------------| 
G-----------------------------------------------------11~-11/9--9/8--8/6--6/4-----------| 
D-------------------------------------------------11--------------------------7--5-6----| 
A--------------9--9--8h9p8h9--12--12--11h12p11h12---------------------------------------| 
E---9--8h9p8h9--------------------------------------------------------------------------| 





e---------------------------------------------------------------------------------------------| 
B---------------------------------------------------------------------------------------------| 
G------------------------------------------------------------------------------------4--------| 
D-----------------------------6----------------------------7-----------------6-5h6p5---6-5h6p5| 
A---------------7--7-6h7p6h7-----7-6h7p6h7-----9--8h9p8h9-----9--8h9p8h9--6-------------------| 
E---7--6h7p6h7------------------------------9-------------------------------------------------| 






e------------------------------------------------------------------| 
B------------------------------------------------------------------| 
G------------------------------------9~--8h9p8--------8------------| 
D------7-6h7p6h7-----9--8h9p8h9----------------11--9-----9---------| 
A---7-------------9--------------11----------------------7---------| 
E----------------------------------------------------------X--X-X--| 


Tema PARTE A 


e----------------------------------------------------------------| 
B--------------9----9-10-11--12----------------9----10-9---------| 
G-----9-8-9-11---11-------------9~----9-8-11-9---11------10-11~--| 
D---9-----------------------------9-9----------------------------| 
A----------------------------------------------------------------| 
E----------------------------------------------------------------| 


e------------------------------------------------------------------------------| 
B--------------------10---10-12-13-14----------------------10----12p10---------| 
G--------11-10-11-13----13------------11~------11-10-11-13----13-------12-13---| 
D--11-11---------------------------------11-11---------------------------------| 
A------------------------------------------------------------------------------| 
E------------------------------------------------------------------------------| 


e---------------------------------------------------------------------------------| 
B---------------------------------------------------------------------------------| 
G--13-13-14-13~--13-14-13-13--16b18r--16--14h16p14---13h14p13----11h13p11---------| 
D---------------------------------------------------------------------------------| 
A---------------------------------------------------------------------------------| 
E---------------------------------------------------------------------------------| 


e---------------------------------------------------------------------------------| 
B---------------------------------------------------------------------------------| 
G--9h11p9--8-8-11~---11-11-13-11~--11-13-11-11---16b18--16~---15--13h15p13--------| 
D---------------------------------------------------------------------------------| 
A---------------------------------------------------------------------------------| 
E---------------------------------------------------------------------------------| 


e----------------------------------------------------------------------------| 
B-----------------------------------------7-9-----7-9-----7-9---7------------| 
G--11h13p11---9h11p9---7h8p7/6--6-------8-------8-------8-----------8~-------| 
D---------------------------------9~--9-------9-------9----------------------| 
A----------------------------------------------------------------------------| 
E----------------------------------------------------------------------------| 




Parte B 


e----------------------------------------------------------------| 
B--------------9----9-10-11--12----------------9----10-9---------| 
G-----9-8-9-11---11-------------9~----9-8-11-9---11------10-11~--| 
D---9-----------------------------9-9----------------------------| 
A----------------------------------------------------------------| 
E----------------------------------------------------------------| 


e------------------------------------------------------------------------------| 
B--------------------10---10-12-13-14----------------------10----12p10---------| 
G--------11-10-11-13----13------------11~------11-10-11-13----13-------12-13---| 
D--11-11---------------------------------11-11---------------------------------| 
A------------------------------------------------------------------------------| 
E------------------------------------------------------------------------------| 



e-------------------------------------------------------------------------------------| 
B-----------------------------------------------------------------------------------14| 
G---------------------------------------------------------------------------------13--| 
D-----------------------------4-6-4-3-4-3-4-6-4-4~/10-10--6-7-6-5-6-5-6-7-5-5---15----| 
A--7-9-7-6-7-6-7-9-7-7~/12-12-------------------------------------------------16------| 
E-------------------------------------------------------------------------------------| 


e----------------------------------------------------------------------------------------------------------------------------| 
B--12-14---------------------------------------------------------------11-12-------------------------------------------------| 
G--------11-11---------------14-13--------------14-----------11-13-14--------13-------------11-13-14-13----------------------| 
D--------------14~--13-14-16-------13-14-----------16-16-14---------------------14-11-13-14----------------------------------| 
A----------------------------------------15h16-------------------------------------------------------------------------------| 
E----------------------------------------------------------------------------------------------------------------------------| 



e----------------------------------------------------------------------------------| 
B------------11-12-----------------------------------------------------------------| 
G--11-13-14--------13-------------11-13-14-13--13p11-------------------------------| 
D---------------------14-11-13-14------------------14-13-11----13p11----11-13-14---| 
A-----------------------------------------------------------14-------14------------| 
E----------------------------------------------------------------------------------| 


final 


e------------------------------------------------------------------------------------| 
B------------11-12-------------------------------------------------------------------| 
G--11-13-14--------13-------------11-13-14-13--13p11---------------------------------| 
D---------------------14-11-13-14--------------------14-13-11----13p11----11-13-14---| 
A-------------------------------------------------------------14-------14------------| 
E------------------------------------------------------------------------------------| 



e--12----------------------16-15-16---19-18-19----22b24------------------| 
B-----12--------17-16-17-------------------------------------------------| 
G--------13--------------------------------------------------------------| 
D-----------14--------------------------------------------13-------------| 
A---------------------------------------------------------11--2----------| 
E-------------------------------------------------------------0----------| 

Compartilhe esta música: novo

QR Code
Copiar