Tom: D
Intro x2 
e|---------------------------------------| 
b|---------------------------------------| 
G|---------------------------------------| 
D|--xx-4-xx-4h5-xx-5-xx-5h7--------------| 
A|--xx-4-xx-4h5-xx-5-xx-5h7------9-------| 
E|--xx-4-xx-4h5-xx-5-xx-5h7--7h9---------| 
                             * * 
e|---------------------------------------| 
b|---------------------------------------| 
G|---------------------------------------| 
D|--xx-7-xx-7h9-xx-----------------------| 
A|--xx-7-xx-7h9-xx-------5h7-9~-----5~---| 
E|--xx-7-xx-7h9-xx---7h9--------7h9------| 
                              
The Verse has no guitar part until 
e|---------------------------------------| 
b|---------------------------------------| 
G|---------------------------------------| 
D|--9-----------7---------0~------000000-| 
A|--9-----------7---------0~------000000-| 
E|--9-----------7---------0~------000000-| 
  'I remember'                    ****** 


Pre-Chorus 
e|---------------------------------------| 
b|---------------------------------------| 
G|-------------11-11-11-12-11~-11-12-11~-| 
D|--7-7-5-5----x--x--x--x--x---x--x--x---| 
A|--7-7-5-5----9--9--9--10-9~--9--10-9~--| 
E|--7-7-5-5------------------------------| 
  'You're just a boy'   

e|---------------------------------------| 
b|---------------------------------------| 
G|------------11-11-11-12-11-9-9-9-7-----| 
D|-7-7-0-0----x--x--x--x--x--x-x-x-x-----| 
A|-7-7-0-0----9--9--9--10-9--7-7-7-5-----| 
E|-7-7-0-0-------------------------------| 
  'She's just a girl' 


e|---------------------------------------| 
b|---------------------------------------| 
G|-------------11-11-11-12-11~-11-12-11~-| 
D|--7-7-5-5----x--x--x--x--x---x--x--x---| 
A|--7-7-5-5----9--9--9--10-9~--9--10-9~--|- 
E|--7-7-5-5------------------------------| - 
  'You'll break her heart'                  -  I can't tell which one 
                                            -   is actually played 
e|---------------------------------------| - 
b|---------------------------------------|- 
G|-------------11-11-11-12-11~-11-12-11~-| 
D|--7-7-9-5----x--x--x--x--x---x--x--x---| 
A|--7-7-9-5----9--9--9--10-9~--9--10-9~--| 
E|--7-7-9-5------------------------------| 
  'You'll break her heart'   

e|---------------------------------------| 
b|---------------------------------------| 
G|------------11-11-11-12-11-9-9-9-7-----| 
D|-7-7-0-0----x--x--x--x--x--x-x-x-x-----| 
A|-7-7-0-0----9--9--9--10-9--7-7-7-5-----| 
E|-7-7-0-0-------------------------------| 
  'She'll wreck your world' 

Chorus 
e|---------------------------------------| 
b|---------------------------------------| 
G|-----------------------4-4-4-4-2-2-2-2-| 
D|-7-7-7-5-5-5-5-5-5-5-5-4-4-4-4-2-2-2-2-| 
A|-7-7-7-5-5-5-5-5-5-5-5-2-2-2-2-0-0-0-0-| 
E|-7-7-7-5-5-5-5-5-5-5-5-----------------| 
  'But life goes on' 

e|---------------------------------------| 
b|---------------------------------------| 
G|-----------------4-4-4-4-2-2-2-2-------| 
D|-5-5-5-5-5-5-5-5-4-4-4-4-2-2-2-2-------| 
A|-5-5-5-5-5-5-5-5-2-2-2-2-0-0-0-0-------| 
E|-5-5-5-5-5-5-5-5-----------------------| 
  'Young love that lasts' 

verse 2 
e|---------------------------------------| 
b|---------------------------------------| 
G|---------------------------------------| 
D|-----------7-7---------55--55--55--55--| 
A|----7h9-5~-7-7---------55--55--55--55--| 
E|-7h9-------7-7---------55--55--55--55--| 
                         **  **  **  ** 
                     'Keeping you waiting' 

e|----------------------------------------| 
b|----------------------------------------| 
G|----------------------------------------| 
D|-9-9-9------7-7-7------0-0-0------0-----| 
A|-9-9-9-x14--7-7-7-x14--0-0-0-x14--0-x16-| 
E|-9-9-9------7-7-7------0-0-0------0-----| 
        *          *            * 
  'I remember'                     

Pre-Chorus 
e|---------------------------------------| 
b|---------------------------------------| 
G|-------------11-11-11-12-11~-11-12-11~-| 
D|--7-7-5-5----x--x--x--x--x---x--x--x---| 
A|--7-7-5-5----9--9--9--10-9~--9--10-9~--| 
E|--7-7-5-5------------------------------| 
  'You're just a boy'   

e|---------------------------------------| 
b|---------------------------------------| 
G|------------11-11-11-12-11-9-9-9-7-----| 
D|-7-7-0-0----x--x--x--x--x--x-x-x-x-----| 
A|-7-7-0-0----9--9--9--10-9--7-7-7-5-----| 
E|-7-7-0-0-------------------------------| 
  'She's just a girl' 


e|---------------------------------------| 
b|---------------------------------------| 
G|-------------11-11-11-12-11~-11-12-11~-| 
D|--7-7-5-5----x--x--x--x--x---x--x--x---| 
A|--7-7-5-5----9--9--9--10-9~--9--10-9~--|- 
E|--7-7-5-5------------------------------| - 
  'You'll break her heart'                  -  I can't tell which one 
                                            -   is actually played 
e|---------------------------------------| - 
b|---------------------------------------|- 
G|-------------11-11-11-12-11~-11-12-11~-| 
D|--7-7-9-5----x--x--x--x--x---x--x--x---| 
A|--7-7-9-5----9--9--9--10-9~--9--10-9~--| 
E|--7-7-9-5------------------------------| 
  'You'll break her heart'   

e|---------------------------------------| 
b|---------------------------------------| 
G|------------11-11-11-12-11-9-9-9-7-----| 
D|-7-7-0-0----x--x--x--x--x--x-x-x-x-----| 
A|-7-7-0-0----9--9--9--10-9--7-7-7-5-----| 
E|-7-7-0-0-------------------------------| 
  'She'll wreck your world' 

Chorus 
e|---------------------------------------| 
b|---------------------------------------| 
G|-----------------------4-4-4-4-2-2-2-2-| 
D|-7-7-7-5-5-5-5-5-5-5-5-4-4-4-4-2-2-2-2-| 
A|-7-7-7-5-5-5-5-5-5-5-5-2-2-2-2-0-0-0-0-| 
E|-7-7-7-5-5-5-5-5-5-5-5-----------------| 
  'But life goes on' 

e|---------------------------------------| 
b|---------------------------------------| 
G|-----------------4-4-4-4-2-2-2-2-------| 
D|-5-5-5-5-5-5-5-5-4-4-4-4-2-2-2-2-------| 
A|-5-5-5-5-5-5-5-5-2-2-2-2-0-0-0-0-------| 
E|-5-5-5-5-5-5-5-5-----------------------| 
  'Young love that lasts' 

Interlude 
e|---------------------------------------| 
b|---------------------------------------| 
G|---------------------------------------| 
D|-0~~~~-x-x-0~~~~----//////-------------| 
A|-0~~~~-x-x-0~~~~----//////-------------| 
E|-0~~~~-x-x-0~~~~----//////-------------| 

e|---------------------------------------| 
b|---------------------------------------| 
G|-7-7-7-7-7-7-7-7-7-7-7-7-7-7-7---------| 
D|-x-x-x-x-x-x-x-x-x-x-x-x-x-x-x---------| 
A|-5-5-5-5-5-5-5-5-5-5-5-5-5-5-5---------| 
E|---------------------------------------| 
  'And everything will be alright' 

e|---------------------------------------| 
b|---------------------------------------| 
G|---------------------------------------| 
D|-9-----7-----5-------------------------| 
A|-9-x16-7-x16-5-x32---------------------| 
E|-9-----7-----5-------------------------| 
  'And everything will be just fine' 

Pre-Chorus 
e|---------------------------------------| 
b|---------------------------------------| 
G|---------------------------------------| 
D|--7-7-5-5------------------------------| 
A|--7-7-5-5------------------------------| 
E|--7-7-5-5------------------------------| 
  'You're just a boy'   

e|---------------------------------------| 
b|---------------------------------------| 
G|---------------------------------------| 
D|-7-7-0-0-------------------------------| 
A|-7-7-0-0-------------------------------| 
E|-7-7-0-0-------------------------------| 
  'She's just a girl' 


e|---------------------------------------| 
b|---------------------------------------| 
G|---------------------------------------| 
D|--7-7-5-5------------------------------| 
A|--7-7-5-5------------------------------|- 
E|--7-7-5-5------------------------------| - 
  'You'll break her heart'                  -  I can't tell which one 
                                            -   is actually played 
e|---------------------------------------| - 
b|---------------------------------------|- 
G|---------------------------------------| 
D|--7-7-9-5------------------------------| 
A|--7-7-9-5------------------------------| 
E|--7-7-9-5------------------------------| 
  'You'll break her heart'   

e|---------------------------------------| 
b|---------------------------------------| 
G|---------------------------------------| 
D|-7-7-0-0------------------x-x-x-x-x----| 
A|-7-7-0-0------------------x-x-x-x-x----| 
E|-7-7-0-0------------------x-x-x-x-x----| 
  'She'll wreck your world' 


Chorus 
e|---------------------------------------| 
b|---------------------------------------| 
G|-----------------4-4-4-4-2-2-2-2-------| 
D|-5-5-5-5-5-5-5-5-4-4-4-4-2-2-2-2-pause-| 
A|-5-5-5-5-5-5-5-5-2-2-2-2-0-0-0-0-------| 
E|-5-5-5-5-5-5-5-5-----------------------| 
  'But life goes on' 

e|---------------------------------------| 
b|---------------------------------------| 
G|-----------------4-4-4-4-2-2-2-2-------| 
D|-5-5-5-5-5-5-5-5-4-4-4-4-2-2-2-2-------| 
A|-5-5-5-5-5-5-5-5-2-2-2-2-0-0-0-0-------| 
E|-5-5-5-5-5-5-5-5-----------------------| 
  'Young love that lasts' 

Chorus 
e|---------------------------------------| 
b|---------------------------------------| 
G|-----------------4-4-4-4-2-2-2-2-------| 
D|-2-2-2-2-5-5-5-5-4-4-4-4-2-2-2-2-------| 
A|-2-2-2-2-5-5-5-5-2-2-2-2-0-0-0-0-------| 
E|-2-2-2-2-5-5-5-5-----------------------| 
  'life goes on' 

e|---------------------------------------| 
b|---------------------------------------| 
G|-----------------4-4-4-4-2-2-2-2-------| 
D|-2-2-2-2-5-5-5-5-4-4-4-4-2-2-2-2-------| 
A|-2-2-2-2-5-5-5-5-2-2-2-2-0-0-0-0-------| 
E|-2-2-2-2-5-5-5-5-----------------------| 
  'Young love that lasts' 

e|---------------------------------------| 
B|---------------------------------------| 
G|-5-5-----------------------------------| 
D|-5-5-x15-------------------------------| 
A|-3-3-----------------------------------| 
E|---------------------------------------| 
     *     
  'You will survive' 
Outro 
e|---------------------------------------| 
b|---------------------------------------| 
G|---------------------------------------| 
D|--xx-4-xx-4h5-xx-5-xx-5h7--------------| 
A|--xx-4-xx-4h5-xx-5-xx-5h7------9-------| 
E|--xx-4-xx-4h5-xx-5-xx-5h7--7h9---------| 
                             * * 
e|---------------------------------------| 
b|---------------------------------------| 
G|---------------------------------------| 
D|--xx-7-xx-7h9-xx--------------7-7\-----| 
A|--xx-7-xx-7h9-xx-------7h9-5~-7-7\-----| 
E|--xx-7-xx-7h9-xx---7h9--------7-7\-----| 


| /   Pick Slide 
| \   slide down 
| h   hammer-on 
| p   pull-off 
| ~   vibrato 
| +   harmonic 
| x   Mute note 
| b   Bend 
| pb  Pre-bend 
| br  Bend release 
| pbr Pre-bend release 
| brb Bend release bend 

 

Compartilhe esta música: novo

QR Code
Copiar