Times Like These

Foo Fighters

Tom: A
Introdução 
(Guitarra 1) 
e|-5-5-5-5-5--5-5-5-5-5--5-5-5- 
B|-0-0-0-0-0--0-0-0-0-0--0-0-0- 
G|-5-5-5-5-5--5-5-5-5-5--5-5-5- 
D|-0-0-0-0-0--0-0-0-0-0--0-0-0- 
A|-0-0-0-0-0--0-0-0-0-0--0-0-0- 
E|-5-5-5-5-5--5-5-5-5-5--5-5-5- 
 
(Guitarra 2) 
 
e|---------------------------------------- 
B|---------------------------------------- 
G|----------12-11----------12-11---------- 
D|-12-10----------12-10------------------- 
A|-------10-------------10-------12-10---- 
E|-------------------------------------10- 
 
D            Am 
I am a one way motorway 
              C 
I'm the one that drives away 
       Em           D 
then follows you back home 
                Am 
I am a Street light shining 
                 C 
I'm a wild light blinding bright 
Em            D 
burning off alone 
 
      C                       Em          D 
It's times like these you learn to live again 
It's times like these you give and give again 
It's times like these you learn to love again 
It's times like these time and time again 
 
Na segunda estrofe repita o que foi feito na primeira. 
 
 

Compartilhe esta música: novo

QR Code
Copiar