Hocus Pocus (easy Version)

Focus

Tabber: WUC 
 
This TAB isnt exactly how Focus played the song but it sounds right and is far far easier than the TAB which i originally had. Yodel away! 
 
|-----------------|-----------------|-----------------|-----------------| 
|-----------------|-----------------|-----------------|-----------------| 
|-----------------|-----------------|-9--10-----------|---------9-------| 
|-5h7-7-7-7---7-7-|-5h7-7-7-7---7-7-|-9--10------10---|-----8---9-------| 
|-0---0-0-0---0-0-|-0---0-0-0---0-0-|-7---8------10---|-----8---7-------| 
|-----------------|-----------------|-------------8---|-----6-----------| 
    
|-----------------|-----------------|-----------------|-----------------| 
|-----------------|-----------------|-----------------|-----------------| 
|-----------------|-----------------|-9--10-------7---|---------9-------| 
|-5h7-7-7-7---7-7-|-5h7-7-7-7---7-7-|-9--10-------7---|-----9---9-------| 
|-0---0-0-0---0-0-|-0---0-0-0---0-0-|-7---8-------5---|-----9---7-------| 
|-----------------|-----------------|-----------------|-----7-----------| 
   
|-----------------|-----------------|-----------------|-----------------| 
|-----------------|-----------------|-----------------|-----------------| 
|-2------5----7---|-----------------|7-----10-----12--|-----------------| 
|-2------5----7---|-----------------|7-----10-----12--|-----------------| 
|-0------3----5---|-----------------|5------8-----10--|-----------------| 
|-----------------|-----------------|-----------------|-----------------| 
 
|-----------------| 
|-----------------| 
|-----------------| 
|-6---------------|     
|-7---------------| 
|-----------------| 
 

Compartilhe esta música: novo

QR Code
Copiar