Hocus Pocus

Focus

Tom: E
Fuzz distortion, gain aprox. 1.5(/10) 
 
Intro 
Lower volume to 2 on guitar and bring back up to full on the verse 
e|---------------------------------|-7------x-x--8---x-x--6----|-8------x-x--5--x-x--7----| 
B|---------------------------------|-8--10--x-x--8---x-x--6--9-|-8--10--x-x--6--x-x--7--9-| 
G|---------------------------------|-7--8---x-x--9---x-x--7--9-|-7--8---x-x--7--x-x--8--9-| 
D|--5/7-7-7-7--7-7--5/7-7-7-7--7-7-|-9--10--x-x--10--x-x--8--9-|-9--10--x-x--7--x-x--9--9-| 
A|--0---0-0-0--0-0--0---0-0-0--0-0-|-7--8---x-x--10--x-x--8----|-7--8---x-x--5--x-x--9----| 
E|---------------------------------|-7--8---x-x--8---x-x--6----|-7--8---x-x--5--x-x--7----| 
                                       1st 3rd 5th time etc        2nd 4th 6th time etc 
 
Guitar two comes in with this after twice round the intro (you'll pick it up) 
e|---------------------------------| 
B|--8/10-10-10---------------------| 
G|---------------------------------|  and then follows the chords of guitar 1 
D|---------------------------------| (you may want to use power chords on guitar 2-up to you as it'll add more depth but isnt what is played) 
A|---------------------------------|  if so they are: E F C Bb E, then E F D B E 
E|---------------------------------| 
 
Bridge to vocal solos 
e|-------------|-------------|---------|------------| 
B|-------------|-------------|---------|------------| 
G|-------------|--7--10--12--|---------|--12--------| 
D|--7--10--12--|--7--10--12--|--14-----|--12-(stab)-| 
A|--7--10--12--|--5--8---10--|--14-----|--10--------| 
E|--5--8---10--|-------------|--12-----|------------| 
                                         this cord comes in on first beat after the drum solo 
 
             Solo not completely worked out yet but enjoy 
 
 
                Peace 
 

Compartilhe esta música: novo

QR Code
Copiar