Time To Forget

Firelake

 

*** It took me loooong time to perform it, so that's what I could make. I hope it's not freaking wrong) *** 


Tuning: standart 

=== Intro, verse 1 and default melody === 

e|---------------------------------------------------------------------------| 
B|---------------------------------------------------------------------------| 
G|---------------------------------------------------------------------------| 
D|---------------------------------------------------------------------------| 
A|-4-4-5-5-5-5-5-4-4-5-5-5-5-5-4-4-5-5-5-5-5-4-4-5-5-5-5-5-4-4-5-5-5-5-5-4-4-| 
E|-7-7-7-7-7-7-7-7-7-7-7-7-7-7-5-5-5-5-5-5-5-5-5-5-5-5-5-5-3-3-3-3-3-3-3-3-3-| 

e|---------------------------------------------------------------------------| 
B|---------------------------------------------------------------------------| 
G|---------------------------------------------------------------------------| 
D|-------------------------------5-5----|  REPEAT  |-------------------------| 
A|-5-5-5-5-4-4-4-5-5-5-5-5-4-4-4-5-5----|          |-------------------------| 
E|-3-3-3-3-3-7-7-7-7-7-7-7-5-5-5-3-3-----------------------------------------| 

=== Pre-Chorus === 

e|---------0---------------3--------------0------------3---------------------| 
B|-------2---2-----------3---3----------2---2----------3---------------------| 
G|-----2-------2-------4-------4------2-------2------4-----------------------| 
D|---------------------------------------------------------------------------| 
A|-0---------------5---------------0-------------5---------------------------| 
E|---------------------------------------------------------------------------| 

e|---------0---------------3-------0----3------------------------------------| 
B|-------2---2-----------3---3-----2----3------------------------------------| 
G|-----2-------2-------4-------4---2----4------------------------------------| 
D|---------------------------------2----5------------------------------------| 
A|-0---------------5---------------0----5------------------------------------| 
E|---------------------------------0----3------------------------------------| 

== Chorus == 

e|---------------------------------------------------------------------------| 
B|---------------------------------------------------------------------------| 
G|---------------------------------------------------------------------------| 
D|---------------------------------------------------------------------------| 
A|-4-4-5-5-5-5-5-4-4-7-7-7-7-7-4-4-5-5-5-5-5-4-4-5-5-5-5-5-4-4-5-5-5-5-5-----| 
E|-7-7-7-7-7-7-7-7-7-7-7-7-7-7-5-5-5-5-5-5-5-5-5-5-5-5-5-5-3-3-3-3-3-3-3-----| 

e|---------------------------------------------------------------------------| 
B|---------------------------------------------------------------------------| 
G|---------------------------------------------------------------------------| 
D|---------------------------------------------------------------------------| 
A|-4-4-5-5-5-5-5-4-4-5-5-5-5-5-4-4-5-5-5-5-5---------------------------------| 
E|-3-3-3-3-3-3-3-3-3-3-3-3-3-3-3-3-3-3-3-3-3---------------------------------| 

e|---------------------------------------------------------------------------| 
B|---------------------------------------------------------------------------| 
G|---------------------------------------------------------------------------| 
D|---------------------------------------------------------------------------| 
A|-4-4-5-5-5-5-5-4-4-7-7-7-7-7-4-4-5-5-5-5-5-4-4-5-5-5-5-5-4-4-5-5-5-5-5-----| 
E|-7-7-7-7-7-7-7-7-7-7-7-7-7-7-5-5-5-5-5-5-5-5-5-5-5-5-5-5-3-3-3-3-3-3-3-----| 

e|---------------------------------------------------------------------------| 
B|---------------------------------------------------------------------------| 
G|---------------------------------------------------------------------------| 
D|---------------------------------------------------------------------------| 
A|-4-4-5-5-5-5-5-4-4-5-5-5-5-5-4-4-5-5-5-5-5---------------------------------| 
E|-3-3-3-3-3-3-3-3-3-3-3-3-3-3-3-3-3-3-3-3-3---------------------------------| 

=== Brigde === 

e|---------------------------------------------------------------------------| 
B|---------------------------------------------------------------------------| 
G|---------------------------------------------------------------------------| 
D|-----------------7-7-5-5-5-5-5-11-11-7-7-7-7-7-7-7-5-5-5-------|        |--| 
A|-7-7-5-5-5-5-5-5-9-9-7-7-7-7-7-9--9--9-9-9-9-9-9-9-7-7-7-7-7---|REPEATx2|--| 
E|-9-9-7-7-7-7-7-7----------------x------------------------9-9---|--------|--| 

== verse 2 (The same as 1-st) == 

e|---------------------------------------------------------------------------| 
B|---------------------------------------------------------------------------| 
G|---------------------------------------------------------------------------| 
D|---------------------------------------------------------------------------| 
A|-4-4-5-5-5-5-5-4-4-5-5-5-5-5-4-4-5-5-5-5-5-4-4-5-5-5-5-5-4-4-5-5-5-5-5-4-4-| 
E|-7-7-7-7-7-7-7-7-7-7-7-7-7-7-5-5-5-5-5-5-5-5-5-5-5-5-5-5-3-3-3-3-3-3-3-3-3-| 

e|---------------------------------------------------------------------------| 
B|---------------------------------------------------------------------------| 
G|---------------------------------------------------------------------------| 
D|-------------------------------5-5----|  REPEAT  |-------------------------| 
A|-5-5-5-5-4-4-4-5-5-5-5-5-4-4-4-5-5----|          |-------------------------| 
E|-3-3-3-3-3-7-7-7-7-7-7-7-5-5-5-3-3-----------------------------------------| 

=== Pre-Chorus === 

e|---------0---------------3--------------0------------3---------------------| 
B|-------2---2-----------3---3----------2---2----------3---------------------| 
G|-----2-------2-------4-------4------2-------2------4-----------------------| 
D|---------------------------------------------------------------------------| 
A|-0---------------5---------------0-------------5---------------------------| 
E|---------------------------------------------------------------------------| 

e|---------0---------------3-------0----3------------------------------------| 
B|-------2---2-----------3---3-----2----3------------------------------------| 
G|-----2-------2-------4-------4---2----4------------------------------------| 
D|---------------------------------2----5------------------------------------| 
A|-0---------------5---------------0----5------------------------------------| 
E|---------------------------------0----3------------------------------------| 

== Solo part (2-nd guitar entering) ==  

1-st Guitar 

e|---------------------------------------------------------------------------| 
B|---------------------------------------------------------------------------| 
G|---------------------------------------------------------------------------| 
D|---------------------------------------------------------------------------| 
A|-4-4-5-5-5-5-5-4-4-7-7-7-7-7-4-4-5-5-5-5-5-4-4-5-5-5-5-5-4-4-5-5-5-5-5-----| 
E|-7-7-7-7-7-7-7-7-7-7-7-7-7-7-5-5-5-5-5-5-5-5-5-5-5-5-5-5-3-3-3-3-3-3-3-----| 

e|---------------------------------------------------------------------------| 
B|---------------------------------------------------------------------------| 
G|---------------------------------------------------------------------------| 
D|---------------------------------------------------------------------------| 
A|-4-4-5-5-5-5-5-4-4-5-5-5-5-5-4-4-5-5-5-5-5---------------------------------| 
E|-3-3-3-3-3-3-3-3-3-3-3-3-3-3-3-3-3-3-3-3-3---------------------------------| 

e|---------------------------------------------------------------------------| 
B|---------------------------------------------------------------------------| 
G|---------------------------------------------------------------------------| 
D|---------------------------------------------------------------------------| 
A|-4-4-5-5-5-5-5-4-4-7-7-7-7-7-4-4-5-5-5-5-5-4-4-5-5-5-5-5-4-4-5-5-5-5-5-----| 
E|-7-7-7-7-7-7-7-7-7-7-7-7-7-7-5-5-5-5-5-5-5-5-5-5-5-5-5-5-3-3-3-3-3-3-3-----| 

e|---------------------------------------------------------------------------| 
B|---------------------------------------------------------------------------| 
G|---------------------------------------------------------------------------| 
D|---------------------------------------------------------------------------| 
A|-4-4-5-5-5-5-5-4-4-5-5-5-5-5-4-4-5-5-5-5-5---------------------------------| 
E|-3-3-3-3-3-3-3-3-3-3-3-3-3-3-3-3-3-3-3-3-3---------------------------------| 

2-nd Guitar (At the same time as 1-st) 

e|---------------------------------------------------------------------------| 
B|-4-5---5-4-4-5---5-4-5---5-4-4-5-9~-7-5-4-4-5---5-4-4-5---5-4-5---5~-5~-4~-| 
G|-----4~--------4-------4----------------------4---------4-------4---------4| 
D|---------------------------------------------------------------------------| 
A|---------------------------------------------------------------------------| 
E|---------------------------------------------------------------------------| 

e|---------------------------------------------------------------------------| 
B|-4-5---5-4-4-5---5-4-5---5-4-4-5-9~-7-5-4-4-5---5-4-4-5---5-4-5---5~-5~-4~-| 
G|-----4~--------4-------4----------------------4---------4-------4---------4| 
D|---------------------------------------------------------------------------| 
A|---------------------------------------------------------------------------| 
E|---------------------------------------------------------------------------| 

=== Pre-Chorus === 

e|---------0---------------3--------------0------------3---------------------| 
B|-------2---2-----------3---3----------2---2----------3---------------------| 
G|-----2-------2-------4-------4------2-------2------4-----------------------| 
D|---------------------------------------------------------------------------| 
A|-0---------------5---------------0-------------5---------------------------| 
E|---------------------------------------------------------------------------| 

e|---------0---------------3-------0----3------------------------------------| 
B|-------2---2-----------3---3-----2----3------------------------------------| 
G|-----2-------2-------4-------4---2----4------------------------------------| 
D|---------------------------------2----5------------------------------------| 
A|-0---------------5---------------0----5------------------------------------| 
E|---------------------------------0----3------------------------------------| 

=== Chorus === 

e|---------------------------------------------------------------------------| 
B|---------------------------------------------------------------------------| 
G|---------------------------------------------------------------------------| 
D|---------------------------------------------------------------------------| 
A|-4-4-5-5-5-5-5-4-4-7-7-7-7-7-4-4-5-5-5-5-5-4-4-5-5-5-5-5-4-4-5-5-5-5-5-----| 
E|-7-7-7-7-7-7-7-7-7-7-7-7-7-7-5-5-5-5-5-5-5-5-5-5-5-5-5-5-3-3-3-3-3-3-3-----| 

e|---------------------------------------------------------------------------| 
B|---------------------------------------------------------------------------| 
G|---------------------------------------------------------------------------| 
D|---------------------------------------------------------------------------| 
A|-4-4-5-5-5-5-5-4-4-5-5-5-5-5-4-4-5-5-5-5-5---------------------------------| 
E|-3-3-3-3-3-3-3-3-3-3-3-3-3-3-3-3-3-3-3-3-3---------------------------------| 

e|---------------------------------------------------------------------------| 
B|---------------------------------------------------------------------------| 
G|---------------------------------------------------------------------------| 
D|---------------------------------------------------------------------------| 
A|-4-4-5-5-5-5-5-4-4-7-7-7-7-7-4-4-5-5-5-5-5-4-4-5-5-5-5-5-4-4-5-5-5-5-5-----| 
E|-7-7-7-7-7-7-7-7-7-7-7-7-7-7-5-5-5-5-5-5-5-5-5-5-5-5-5-5-3-3-3-3-3-3-3-----| 

e|---------------------------------------------------------------------------| 
B|---------------------------------------------------------------------------| 
G|---------------------------------------------------------------------------| 
D|---------------------------------------------------------------------------| 
A|-4-4-5-5-5-5-5-4-4-5-5-5-5-5-4-4-5-5-5-5-5---------------------------------| 
E|-3-3-3-3-3-3-3-3-3-3-3-3-3-3-3-3-3-3-3-3-3---------------------------------| 

************************************ 

Okay, if you found it useful, how about rating and commenting it? 

************************************ 

Compartilhe esta música: novo

QR Code
Copiar