Stalker - The Bloodsucker Campfire Song

Firelake

Intro 

e||--------7------------2------------7------------------3--| 
B||--------8------------3------------8------------------4--| 
G||------9-9----------4-4----------9-9----------4-----5-5--| 
D||----9---9-9------4---4-4------9---9-9------4-----5------| 
A||--7---------7--2---------2--7---------7--2-----3--------| 
E||--------------------------------------------------------| 

--|--------7-------------------------7------------------3--|| 
--|--------8-------------------------8------------------4--|| 
--|------9-9----------4---4--------9-9----------4-----5-5--|| 
--|----9---9-9------4---4-4-4----9---9-9------4-----5---5--|| 
--|--7---------7--2-----2---2--7---------7--2-----3-----3--|| 
--|--------------------------------------------------------|| 

verse 1 

e||----------------------------------------------------------------|| 
B||----------------------------------------------------------------|| 
G||----------------------------------------------------------------|| 
D||--0---5-3-2--0---0-0-0--0---5-3-2--2-2-2-3--5-5-5--------0------|| 
A||--2---7-5-3--2---5-7-9--2---7-5-3--3-3-3-5--7-7-7--------2------|| 
E||--0---0-0-0--0---3-5-7--0---0-0-0--0-0-0-0--0-0-0--(x2)--0------|| 

verse 2 

e||----------------------------------------------------------------|| 
B||----------------------------------------------------------------|| 
G||--0--------------0--------------0-------------------------------|| 
D||--9--------------9--------------9--------------5-9-7-7-7--------|| 
A||--7--------------7--------------7--------------3-7-5-5-5--------|| 
E||--0---0-8-7-5-3--0---0-8-7-5-3--0---0-8-7-5-3--0-0-0-0-0--(x2)--|| 

verse 3 

e||----------------------------------------------------------------|| 
B||----------------------------------------------------------------|| 
G||----------------------------------------------------------------|| 
D||--0---5-5-3-2--0---0-0-0--0---5-5-3-2--2-2-2-3--5-5-5--------0--|| 
A||--2---7-7-5-3--2---5-7-9--2---7-7-5-3--3-3-3-5--7-7-7--------2--|| 
E||--0---0-0-0-0--0---3-5-7--0---0-0-0-0--0-0-0-0--0-0-0--(x2)--0--|| 

Compartilhe esta música: novo

QR Code
Copiar