Something New

Faul

Intro : 

e|---------------------------------------------------| 
B|---------------------------------------------------| 
G|---11b12b11-9----9----11b-12b-11-9---11-11---------| 
D|--------------11-------------------9---------------| 
A|---------------------------------------------------| 
E|---------------------------------------------------| 

e|---------------------------------------------------| 
B|---------------------------------------------------| 
G|---11b12b11-9----9----11b-12b-11-9---11-11---------| 
D|--------------11-------------------9---------------| 
A|---------------------------------------------------| 
E|---------------------------------------------------| 

Solo : 

e|------------------------------------------------------| 
B|------------------------------------------------------| 
G|--------12-14------------------------9----------------| 
D|--11/13-------13-11-------------9-11---11-9----9-9----| 
A|--------------------14-----9-11-------------11--------| 
E|------------------------------------------------------| 

e|------------------------------------------------------| 
B|------------------------------------------------------| 
G|--------12-14------------------------9----------------| 
D|--11/13-------13-11-------------9-11---11-9----9-9----| 
A|--------------------14-----9-11-------------11--------| 
E|------------------------------------------------------| 

e|------------------------------------------------------| 
B|---------------12-----------------------------------------------9-------------------------| 
G|-------9-11b13----13b-11----9------9------9------9--------9-11----11-9----9-9-------------| 
D|--9-11------------------------9-11----------9-11-----9-11--------------11-----11----------| 
A|------------------------------------------------------------------------------------------| 
E|------------------------------------------------------------------------------------------| 

e|-------------------------------------------------------------| 
B|-12b14-12b14-12b14-12-9-----------------12-------------------| 
G|--------------------------------9-11b13----13b-11-9---9-9----| 
D|---------------------------9-11---------------------11----11-| 
A|-------------------------------------------------------------| 
E|-------------------------------------------------------------| 

e|-------------------------------------------------------| 
B|-----------------------------9-------------------------| 
G|---9------9------9------9-11---11-9----9-9-------------| 
D|-----9-11---9-11---9-11-------------11-----11----------| 
A|-------------------------------------------------------| 
E|-------------------------------------------------------|  

Compartilhe esta música: novo

QR Code
Copiar