Communication

Far From Alaska

intro. 
e|------------------------------------------------------------------| 
B|------------------------------------------------------------------| 
G|------------------------------------------------------------------| 
D|-9------9--7---------9----99-7------------------------------------| 
A|-7------7--5--77--5--7-2--77-5-----------------2------------------| 
E|--------------55--3----0-------5555-3-5b6br5-3-0------------------| 

e|-------------------------------------------------------------| 
B|-------------------------------------------------------------| 
G|-------------------------------------------------------------| 
D|---9--7---------9----99-7------------------------------------| 
A|---7--5--77--5--7-2--77-5-----------------2------------------| 
E|---------55--3----0-------5555-3-5b6br5-3-0------------------| 

verse. 
e|-x-----x-----x-----x-----x-----x--------------------------------------| 
B|-x-----x-----x-----x-----x-----x--------------------------------------| 
G|-x-----x-----x-----x-----x-----x----1/////////////21------------------| 
D|-x-----x-----x-----x-----x-----x----1/////////////21------------------| 
A|-x-----x-----x-----x-----x-----x----1/////////////21------------------| 
E|-x-----x-----x-----x-----x-----x--------------------------------------| 
                         
Pre-Chorus. 
e|-0---0---0---0---0---0---0-----| 
B|---5---5---5---5---5---5---5---| 
G|-------------------------------| 
D|-------------------------------| 
A|-------------------------------| 
E|-------------------------------| 

e|-0---0---0---0---0---0---0-----| 
B|---6---5---6---5---6---8---6---| 
G|-------------------------------| 
D|-------------------------------| 
A|-----------------------x4----| 
E|-------------------------------| 

e|-0---0---0---0---0---0---0-----|-0---0---0---0---0---0---0-----| 
B|---6---5---6---5---6---5---6---|---5---5---5---5---5---5---5---| 
G|-------------------------------|-------------------------------| 
D|-------------------------------|-------------------------------| 
A|-------------------------------|-------------------------------| 
E|-------------------------------|-------------------------------| 

e|-0----| 
B|-5----| 
G|-4----| 
D|-2----| 
A|-2----| 
E|-0----| 

Chorus. 
e|--------------------------------------------------------------------------| 
B|--------------------------------------------------------------------------| 
G|-999999999999999-1111111111111111-1212121212121212-1111-1111-1111-1111-11-| 
D|-999999999999999-1212121212121212-1111111111111111-1212-1212-1212-1212-12-| 
A|-777777777777777-1010101010101010------------------1010-1010-1010-1010-10-| 
E|--------------------------------------------------------------------------| 

e|--------------------------------------------------------------------------| 
B|--------------------------------------------------------------------------| 
G|-999999999999999-1111111111111111-1212121212121212-1111-1111-1111-1111-11-| 
D|-999999999999999-1212121212121212-1111111111111111-1212-1212-1212-1212-12-| 
A|-777777777777777-1010101010101010------------------1010-1010-1010-1010-10-| 
E|--------------------------------------------------------------------------| 

interlude. 
e|-----------------------------------------------------| 
B|-----------------------------------------------------| 
G|---------14-12^^--------14-12^^----------------------| 
D|---------14-12^^--------14-12^^--55555555-77777777---| 
A|---------------------------------55555555-77777777---| 
E|-12--12----------121212----------33333333-55555555---| 

e|-----------------------------------------------------| 
B|-----------------------------------------------------| 
G|---------14-12^^--------14-12^^----------------------| 
D|---------14-12^^--------14-12^^--55555555-77777777---| 
A|---------------------------------55555555-77777777---| 
E|-12--12----------121212----------33333333-55555555---| 

e|------------------------------------------------------------| 
B|------------------------------------------------------------| 
G|---------14-12^^--------14-12-14/15\14----------------------| 
D|---------14-12^^--------14-12-14/15\14--55555555-77777777---| 
A|----------------------------------------55555555-77777777---| 
E|-12--12----------121212-----------------33333333-55555555---| 

e|------------------------------------------------------------| 
B|------------------------------------------------------------| 
G|---------14-12^^--------14-12-14/15\14----------------------| 
D|---------14-12^^--------14-12-14/15\14--55555555-77777777---| 
A|----------------------------------------55555555-77777777---| 
E|-12--12----------121212-----------------33333333-55555555---| 

verse. 
e|-x-----x-----x-----x-----x-----x--------------------------------------| 
B|-x-----x-----x-----x-----x-----x--------------------------------------| 
G|-x-----x-----x-----x-----x-----x----1/////////////21------------------| 
D|-x-----x-----x-----x-----x-----x----1/////////////21------------------| 
A|-x-----x-----x-----x-----x-----x----1/////////////21------------------| 
E|-x-----x-----x-----x-----x-----x--------------------------------------| 
                         
Pre-Chorus. 
e|-0---0---0---0---0---0---0-----| 
B|---5---5---5---5---5---5---5---| 
G|-------------------------------| 
D|-------------------------------| 
A|-------------------------------| 
E|-------------------------------| 

e|-0---0---0---0---0---0---0-----| 
B|---6---5---6---5---6---8---6---| 
G|-------------------------------| 
D|-------------------------------| 
A|-----------------------x4----| 
E|-------------------------------| 

e|-0---0---0---0---0---0---0-----|-0---0---0---0---0---0---0-----| 
B|---6---5---6---5---6---5---6---|---5---5---5---5---5---5---5---| 
G|-------------------------------|-------------------------------| 
D|-------------------------------|-------------------------------| 
A|-------------------------------|-------------------------------| 
E|-------------------------------|-------------------------------| 

e|-0----| 
B|-5----| 
G|------| 
D|------| 
A|------| 
E|------| 

Chorus. 

bridge. (play nothing) 

Chorus. 

Compartilhe esta música: novo

QR Code
Copiar