Frame

Eric's Trip

Intro 
|Guitar 1 
|-----------------------------------| 
|-----------------------------------| 
|-----------------------------------| 
|-2-2-22-26-6-66-67-7-77-74-4-44-42-| 
|-2-2-22-26-6-66-67-7-77-74-4-44-42-| 
|-0-0-00-04-4-44-45-5-55-52-2-22-20-| 
| 
|Guitar 2 
|-----------------------------------| 
|-----------------------------------| 
|-----------------------------------| 
|-2-2-22-26-6-66-67-7-77-74-4-44-42-| 
|-2-2-22-26-6-66-67-7-77-74-4-44-42-| 
|-0-0-00-04-4-44-45-5-55-52-2-22-20-| 
| 
|Bass 
|-----------------------------------| 
|-----------------------------------| 
|-----------------------------------| 
|-0-0-00-04-4-44-45-5-55-52-2-22-20-| 


Verse 
|Bass 
|-----------------------------------| 
|-----------------------------------| 
|-----------------------------------|  
|-0-0-00-04-4-44-45-5-55-52-2-22-20-| 



Chorus 
|Guitar 1 
|---------------------------------------| 
|---------------------------------------| 
|---------------------------------------| 
|-6-6-66-6-4-4-44-4-2-2-2-22-2-2-2-22-2-| 
|-6-6-66-6-4-4-44-4-2-2-2-22-2-2-2-22-2-| 
|-4-4-44-4-2-2-22-2-0-0-0-00-0-0-0-00-0-| 
| 
|Guitar 2 
|---------------------------------------| 
|-4-5~-----7~-------9~---------10-10-9\-| 
|---------------------------------------| 
|---------------------------------------| 
|---------------------------------------| 
|---------------------------------------| 
| 
|Bass 
|---------------------------------------| 
|---------------------------------------| 
|---------------------------------------| 
|-4-4-44-4-2-2-22-2-0-0-0-00-0-0-0-00-0-| 

Chorus 
|Guitar 1 
|---------------------------------------| 
|---------------------------------------| 
|---------------------------------------| 
|-6-6-66-6-9-9-99-9-2-2-2-22-2-2-2-22-2-| 
|-6-6-66-6-9-9-99-9-2-2-2-22-2-2-2-22-2-| 
|-4-4-44-4-7-7-77-7-0-0-0-00-0-0-0-00-0-| 
| 
|Guitar 2 
|---------------------------------------| 
|-4-5~-----7~-------9~---------10-10-9\-| 
|---------------------------------------| 
|---------------------------------------| 
|---------------------------------------| 
|---------------------------------------| 
| 
|Bass 
|---------------------------------------| 
|---------------------------------------| 
|---------------------------------------| 
|-4-4-44-4-7-7-77-7-0-0-0-00-0-0-0-00-0-| 

End with 
|Guitars 
|---| 
|---| 
|-6-| 
|-6-| 
|-4-| 
|---| 
| 
|Bass 
|---| 
|---| 
|-4-| 
|---| 

 

Compartilhe esta música: novo

QR Code
Copiar