Pretty Mary K Demo

Elliott Smith

Intro: 
|----------------| 
|--2----2---2----| 
|-----2---2---2-5| 
|--4---4---4---4-| x4 
|2---2---2---2---| 
|----------------| 

Verse:                                  When going back to the Verse: 
|----------------|----------------|----------------|----------------| 
|--2----2---2---2|--2----2---2---2|--3----3---3---3|--3----3---3----| 
|-----2---2---2--|-----2---2---2--|-----4---4---4--|-----2---2------| 
|--4---4---4---4-|--4---4---4---4-|--5---5---5---5-|--0---0---0-----| 
|2---2---2---4---|----------------|----------------|0---0---0---0-1-| 
|----------------|2---2---2---2---|3---3---3---3---|----------------| 

                                               Going into the Chorus: 
                                                   |-----------3---2| 
                                                   |--3----3--------| 
                                                   |-----2---2---2--| 
                                                   |--0---0---0---0-|  
                                                   |0---0---0---0---| 
                                                   |----------------| 

Chorus: 
|-------2--------|--2----2---2---2|--3----3---3---3|--3----3---3---3| 
|--3--------3---3|----------------|----------------|-----3---3---3--| 
|-----2---2---2--|-----2---2---2--|-----5---5---5--|----------------| 
|--0---0---0---0-|--4---4---4---4-|--5---5---5---5-|--5---5---5---5-| 
|0---0---0---0---|4---4---4---4---|3---3---3---3---|----------------| 
|----------------|----------------|----------------|3---3---3---3---| 

|----------------|-------3--------|----------------|-------2--------| 
|--3----3---3---3|--3--------3---3|--2----2---2---2|--3--------3----| 
|-----2---2---2--|-----4---4---4--|-----2---2---2--|-----2---2------| 
|--0---0---0---0-|--5---5---5---5-|--4---4---4---4-|--0---0---0-----| 
|0---0---0---0---|----------------|----------------|0---0---0---0-1-| 
|----------------|3---3---3---3---|2---2---0---0---|----------------| 

Bridge: 
|----------------|-------2--------| 
|--3----3â??-3----3|--3--------3----| 
|-----2-------2--|-----2---2------| 
|--0---0---0---0-|--0---0---0-----|x2 
|2---2---1---1---|0---0---0---0-1-| 
|----------------|----------------| 

|----------------|----------------| 
|--3----3--3----3|--3----3--0----0| 
|-----2-------2--|-----2-------1--| 
|--0---0---0---0-|--0---0---3---3-| 
|2---2---1---1---|0---0---4---4---| 
|----------------|----------------|                     
                                         
|----------------|----------------| 
|--3----3---3---3|--3----3---3---3| 
|-----4---4---4--|-----3---3---3--| 
|--5---5---5---5-|--5---5---5---5-| 
|----------------|----------------| 
|3---3---3---3---|3---3---3---3---| 

Compartilhe esta música: novo

QR Code
Copiar