Narrow Mouth

Early November

Tom: D
Tuning: Drop D 

Intro 

Lead 
e|-------------------------------------------------------| 
B|--------------0 0-------5------------------------------| 
G|-----7-5--7-5-4h5p0------7-----------------------------| 
D|--00-0-0--0-0--------00---7----------------------------| 
A|--55-----------------55--------------------------------| 
D|-------------------------------------------------------| 

Rhythm  
    D             C 
e|-----------------------------------------| 
B|-----------------------------------------| 
G|--7~------------5~-----------------------| 
D|--7~------------5~-----------------------| 
A|--5~------------3~-----------------------| 
D|-----------------------------------------| 
*Comes in at about 9 seconds* 

Verse 

Lead 
e|-------------------------------------------------------| 
B|--------------0 0-------5------------------------------| 
G|-----7-5--7-5-4h5p0------7-----------------------------| 
D|--00-0-0--0-0--------00---7----------------------------| 
A|--55-----------------55--------------------------------| 
D|-------------------------------------------------------| 



Before the Chorus: 

    A 
e|-------------------| 
B|--2~---------------| 
G|--2~---------------| 
D|--2~---------------| 
A|--0~---------------| 
D|-------------------| 

Chorus 

e|---------------------------------| 
B|---------------------------------| 
G|--7777-7777--5555-5555-----------| 
D|--7777-7777--5555-5555-----------| 
A|--5555-5555--3333-3333-----------| 
D|--0000-0000----------------------| 
'YOU GOTTA GET SOMETHING RIGHT...' 

Another Guitar can play: 
e|---------------------------------| 
B|---------------------------------| 
G|---------------------------------| 
D|--0--0-00-10--10-1010------------| 
A|--0--0-00-10--10-1010------------| 
D|--0--0-00-10--10-1010------------| 

Noise & Bass Fill 

verse 2 
-Same as 1st Verse 

Chorus 
-Same as 1st Chorus 


Bridge 

Guitar 2 
e|-------------------| 
B|-------------------| 
G|--2~---------------| 
D|--2~---------------| 
A|--0~---------------| 
D|-------------------| 

Guitar 3 
e|-------------------| 
B|-------------------| 
G|-------------------| 
D|--7~---------------| 
A|--7~---------------| 
D|--7~---------------| 

Lead Guitar (1)  
*play throughout the bridge 
e|----------------------------| 
B|----------------------------| 
G|--0--0--0----0--------------| 
D|--5--5--7----9--------------| 
A|----7--9---10----121514-----| 
D|---7--9--10----12--1212-----| 

Guitar 2 
e|--------8~-7~------| 
B|--8~-7~------------| 
G|-------------------| 
D|-------------------| 
A|-------------------| 
D|-------------------| 
comes in at 02:54 

Breakdown 

Guitar 1 
e|----------------------------------------| 
B|----------------------------------------| 
G|----------------------------------------| 
D|--7777-9999-10101010-12121212-----------| 
A|--7777-9999-10101010-12121212-----------| 
D|--7777-9999-10101010-12121212-----------| 

Guitar 2 
e|--------8~-7~------| 
B|--8~-7~------------| 
G|-------------------| 
D|-------------------| 
A|-------------------| 
D|-------------------| 

Guitar 3 
e|-----------------------------------------------------| 
B|-----------------------------------------------------| 
G|--9-9-9-9-11111111--13-13-13-13--14-14-14-14---------| 
D|--x-x-x-x--x-x-x-x---x--x--x--x---x--x--x--x---------| 
A|--7-7-7-7--9-9-9-9--10-10-10-10--12-12-12-12---------| 
D|-----------------------------------------------------| 

then Guitar 3 switches to this at 03:51 
e|-----------------------------------------------------| 
B|-----------------------------------------------------| 
G|--1212121212121212--999-777--------------------------| 
D|---x-x-x-x-x-x-x-x--xxx-xxx--------------------------| 
A|--1010101010101010--777-555--------------------------| 
D|-----------------------------------------------------| 

End on: 

Guitar 1 
e|-----------| 
B|-----------| 
G|-----------| 
D|--10~------| 
A|--10~------| 
D|--10~------| 

Guitar 2 & 3 
e|-----------| 
B|-----------| 
G|--5~-------| 
D|--5~-------| 
A|--3~-------| 
D|-----------| 

 

Compartilhe esta música: novo

QR Code
Copiar