Northern Lights

Dz Deathrays

Intro: 

e|---4-4-4-4-4-4---4-4-4-4---5-5-5-5-5-5-5-5-5-5-5-5-5-5-5-5-------------| 
B|---5-5-5-5-5-5---5-5-5-5---5-5-5-5-5-5-5-5-5-5-5-5-5-5-5-5-------------| 
G|---6-6-6-6-6-6---4-4-4-4---6-6-6-6-6-6-6-6-6-6-6-6-6-6-6-6-------------| 
D|---6-6-6-6-6-6---6-6-6-6---7-7-7-7-7-7-7-7-7-7-7-7-7-7-7-7-------------| 
A|---------------------------7-7-7-7-7-7-7-7-7-7-7-7-7-7-7-7-------------| 
E|---------------------------5-5-5-5-5-5-5-5-5-5-5-5-5-5-5-5-------------| 

e|---4-4-4-4-4-4-4-4---4-4-4-4---5-5-5-5-5-5-5-5-5-5-5-5-5-5-5-5-------------| 
B|---5-5-5-5-5-5-5-5---5-5-5-5---5-5-5-5-5-5-5-5-5-5-5-5-5-5-5-5-------------| 
G|---6-6-6-6-6-6-6-6---4-4-4-4---6-6-6-6-6-6-6-6-6-6-6-6-6-6-6-6-------------| 
D|---6-6-6-6-6-6-6-6---6-6-6-6---7-7-7-7-7-7-7-7-7-7-7-7-7-7-7-7-------------| 
A|-------------------------------7-7-7-7-7-7-7-7-7-7-7-7-7-7-7-7-------------| 
E|-------------------------------5-5-5-5-5-5-5-5-5-5-5-5-5-5-5-5-------------| 


Verse (distorted): x4 

e|---4-4-4-4-4-4-4-4---4-4-4-4---5-5-5-5-5-5-5-5-5-5-5-5-5-5-5-5-------------| 
B|---5-5-5-5-5-5-5-5---5-5-5-5---5-5-5-5-5-5-5-5-5-5-5-5-5-5-5-5-------------| 
G|---6-6-6-6-6-6-6-6---4-4-4-4---6-6-6-6-6-6-6-6-6-6-6-6-6-6-6-6-------------| 
D|---6-6-6-6-6-6-6-6---6-6-6-6---7-7-7-7-7-7-7-7-7-7-7-7-7-7-7-7-------------| 
A|-------------------------------7-7-7-7-7-7-7-7-7-7-7-7-7-7-7-7-------------| 
E|-------------------------------5-5-5-5-5-5-5-5-5-5-5-5-5-5-5-5-------------| 

'So tired lay awake at night, walked up stairs flicked on the light'..... 

Chorus (distorted): x4 

e|---------------------------------------------------------------------------| 
B|---------------------------------------------------------------------------| 
G|---------------------------------------------------------------------------| 
D|---------------------------------------------------------------------------| 
A|--2-2-2-2-2-2-2-2--4-4-4-4--2-2-2-2-2-2-2-2-2-2-2-2-2-2-2-2----------------| 
E|--0-0-0-0-0-0-0-0--2-2-2-2--0-0-0-0-0-0-0-0-0-0-0-0-0-0-0-0----------------| 

'Getting hassled by these lessons learned'.... 

Lead into Verse/Break: 

e|---------------------------------------------------------------------------| 
B|---------------------------------------------------------------------------| 
G|---------------------------------------------------------------------------| 
D|---------------------------------------------------------------------------| 
A|--2-2-2-2-2-2-2-2-2-2-2-2-2-2-2-2-2-2-2-2-2-2-2-2-2-2-2-2-2-2-2-2----------| 
E|--0-0-0-0-0-0-0-0-0-0-0-0-0-0-0-0-0-0-0-0-0-0-0-0-0-0-0-0-0-0-0-0----------| 

e|---------------------------------------------------------------------------| 
B|---------------------------------------------------------------------------| 
G|-18----14----15-------------18----14----15---------------------------------| 
D|---------------------------------------------------------------------------| 
A|---------------------------------------------------------------------------| 
E|---------------------------------------------------------------------------| 

Verse: 

Chorus: 

Lead into break: 

e|---------------------------------------------------------------------------| 
B|---------------------------------------------------------------------------| 
G|---------------------------------------------------------------------------| 
D|---------------------------------------------------------------------------| 
A|--2-2-2-2-2-2-2-2-2-2-2-2-2-2-2-2-2-2-2-2-2-2-2-2-2-2-2-2-2-2-2-2----------| 
E|--0-0-0-0-0-0-0-0-0-0-0-0-0-0-0-0-0-0-0-0-0-0-0-0-0-0-0-0-0-0-0-0----------| 

e|---------------------------------------------------------------------------| 
B|---------------------------------------------------------------------------| 
G|---------------------------------------------------------------------------| 
D|---------------------------------------------------------------------------| 
A|--2-2-2-2-2-2-2-2-2-2-2-2-2-2-2-2-2-2-2-2-2-2-2-2-2-2-2-2-2-2-2-2----------| 
E|--0-0-0-0-0-0-0-0-0-0-0-0-0-0-0-0-0-0-0-0-0-0-0-0-0-0-0-0-0-0-0-0----------| 
  
'The northern lights, the northern lights'..... 


Break/outro: 

e|---------------------------------------------------------------------------| 
B|---------------------------------------------------------------------------| 
G|---------------------------------------------------------------------------| 
D|----------666------------------666-----------------------------------------| 
A|---777----444----666----777----444-----666---777-7-7-7-7-7-7-7-7-----------| 
E|---555-----------444----555------------444---555-5-5-5-5-7-7-7-7-----------| 

e|-------------------------------------------------------------------------------| 
B|-------------------------------------------------------------------------------| 
G|-------------------------------------------------------------------------------| x8 
D|---6-6-6-6---4-4-4-4---------------------6-6-6-6-------------------------------| 
A|---4-4-4-4---2-2-2-2---2-2-2-2-2-2-2-2---4-4-4-4---6-6-6-6---7-7-7-7-7-7-7-7---| 
E|-----------------------0-0-0-0-0-0-0-0-------------4-4-4-4---5-5-5-5-5-5-5-5---| 

Compartilhe esta música: novo

QR Code
Copiar