Dollar Chills

Dz Deathrays

Intro 
e|---------------------------------------------------------------------------| 
B|---------------------------------------------------------------------------| 
G|---------------------------------------------------------------------------| 
D|-------7--7-9-7-------------7--7-9-7----------7--7-9-7------------9~-------| 
A|---------------------------------------------------------------------------| 
E|--7-7----------------7-7-7---------------7-7---------------7-7-7-----------| 

verse 1 
e|---------------------------------------------------------------------------| 
B|---------------------------------------------------------------------------| 
G|-------------------------------------------------------------------7-------| 
D|------------------------------5-----------------7--------------7h9---9-7---| (x4) 
A|--------------------------5h7---7-5---------7h9---9-7----------------------| 
E|--7-7-----5-5-5-----4-4----------------3-3---------------5-5---------------| 

e|---------------------------------------------------------------------------| 
B|---------------------------------------------------------------------------| 
G|---------------------------------------------------------------------------| 
D|---------7--9-7---------------7--9-7-------------7--9-7--------------------| 
A|-------------------------------------------------------------------9-7-9-7-| 
E|--7-7-----------------7-7--------------7-7-7--------------7-7-7------------| 

e|---------------------------------------------------------------------------| 
B|---------------------------------------------------------------------------| 
G|---------------------------------------------------------------------------| 
D|---------7--9-7---------------7--9-7-------------7--9-7------------9~------| (x2) 
A|---------------------------------------------------------------------------| 
E|--7-7----------------7-7-7---------------7-7-7--------------7-7-7----------| 

verse 2 
e|---------------------------------------------------------------------------| 
B|---------------------------------------------------------------------------| 
G|-------------------------------------------------------------------7-------| 
D|------------------------------5-----------------7--------------7h9---9-7---| (x4) 
A|--------------------------5h7---7-5---------7h7---9-7----------------------| 
E|--7-7-----5-5-5-----4-4----------------3-3---------------5-5---------------| 

e|---------------------------------------------------------------------------| 
B|---------------------------------------------------------------------------| 
G|---------------------------------------------------------------------------| 
D|---------7--9-7---------------7--9-7-------------7--9-7------------9~------| (x3) 
A|---------------------------------------------------------------------------| 
E|--7-7----------------7-7-7---------------7-7---------------7-7-7-----------| 

Bridge 
e|---------------------------------------------------------------------------| 
B|---------------------------------------------------------------------------| 
G|---8-----8-8--------8------8-8---------13-------13-------------------------| 
D|---------------------------------------------------------------------------| (x4) 
A|--------------------------------------------------------------5---7--------| 
E|--7-----7----------7------7----------12-------12----------------4---5------| 

Outro 
e|---------------------------------------------------------------------------| 
B|---------------------------------------------------------------------------| 
G|---------------------------------------------------------------------------| 
D|---------7--9-7---------------7--9-7-------------7--9-7------------9~------| 
A|---------------------------------------------------------------------------| 
E|--7-7----------------7-7-7---------------7-7---------------7-7-------------| 

e|---------------------------------------------------------------------------| 
B|---------------------------------------------------------------------------| 
G|----------------------------------------------------------------9----------| 
D|---------7--9-7-------------7--9-7------------7--9-7-------------7h9-------| 
A|--------------------------------------------------------------------7h9----| 
E|--7-7--------------7-7-7---------------7-7--------------7-7-7----------9~--| 


************************************ 

| ~  Vibrato 
| h  Hammer-on 

************************************ 

Compartilhe esta música: novo

QR Code
Copiar