Whole Truth

Don Broco

 

Intro/Chorus 
e|--3-3-3-3--x-x-x-x--0-0-0-0--3-3-3-3--3-3-3-3--x-x-x-x--0-0-0-0------------| 
B|--3-3-3-3--8-8-8-8--3-3-3-3--3-3-3-3--3-3-3-3--8-8-8-8--3-3-3-3------------| 
G|--0-0-0-0--0-0-0-0--0-0-0-0--0-0-0-0--0-0-0-0--0-0-0-0--0-0-0-0------------| 
D|--2-2-2-2--x-x-x-x--4-4-4-4--0-0-0-0--2-2-2-2--x-x-x-x--4-4-4-4--2p0---0-2-| 
A|--3-3-3-3--7-7-7-7--5-5-5-5--2-2-2-2--3-3-3-3--7-7-7-7--5-5-5-5------2-----| 
E|--0-0-0-0--x-x-x-x--x-x-x-x--0-0-0-0--0-0-0-0--x-x-x-x--x-x-x-x------------| 

Verse/Pre-Chorus(I think Pre-Chorus is this slowed down) 
e|-------------------------8p-7----------­------| 
B|---8----10p-8--8-----------------------­------| 
G|-0--0-0--------0--0-0------------------­------| 
D|--------------------------------------------| 
A|--------------------------------------------| 
E|--------------------------------------------|  

 

Compartilhe esta música: novo

QR Code
Copiar