Nerve

Don Broco

Intro 

e|6-6-6-6-6-6-----4-4-4-----------6-6-6-6-6-6-----4-4-4----------------------| 
B|------------6-6-------4-4-4-4-4-------------6-6-------4-4-4-4-4------------| 
G|---------------------------------------------------------------------------| 
D|---------------------------------------------------------------------------| 
A|---------------------------------------------------------------------------| 
E|---------------------------------------------------------------------------| 


verse 1 


e|6-6-6-6-6-6-----4-4-4-----------6-6-6-6-6-6-----4-4-4----------------------| 
B|------------6-6-------4-4-4-4-4-------------6-6-------4-4-4-4-4------------| 
G|---------------------------------------------------------------------------| 
D|---------------------------------------------------------------------------| 
A|---------------------------------------------------------------------------| 
E|---------------------------------------------------------------------------| 

e|6-6-6-6-6-6-----4-4-4-----------6-6-6-6-6-6-----9-9-9-9-9-9-9-9------------| 
B|------------6-6-------4-4-4-4-4-------------6-6--9-9-9-9-9-9-9-9-----------| 
G|---------------------------------------------------------------------------| 
D|---------------------------------------------------------------------------| 
A|---------------------------------------------------------------------------| 
E|---------------------------------------------------------------------------| 


Chorus 1 


e|---------------------------------------------------------------------------| 
B|---------------------------------------------------------------------------| 
G|---------------------------------------------------------------------------| 
D|---------------------------------------------------------------------------| 
A|---------------------------------------------------------------------------| 
E|---------------------------------------------------------------------------| 


e|16-------------------------------------------------------------------------| 
B|---14-16-16-16-16-16-16-16-16----------------------------------------------| 
G|---------------------------------------------------------------------------| 
D|---------------------------------------------------------------------------| 
A|---------------------------------------------------------------------------| 
E|---------------------------------------------------------------------------| 


verse 2 


e|6-6-6-6-6-6-----4-4-4-----------6-6-6-6-6-6-----4-4-4----------------------| 
B|------------6-6-------4-4-4-4-4-------------6-6-------4-4-4-4-4------------| 
G|---------------------------------------------------------------------------| 
D|---------------------------------------------------------------------------| 
A|---------------------------------------------------------------------------| 
E|---------------------------------------------------------------------------| 

e|6-6-6-6-6-6-----4-4-4-----------6-6-6-6-6-6-----9-9-9-9-9-9-8-8------------| 
B|------------6-6-------4-4-4-4-4-------------6-6--9-9-9-9-9-9-9-9-----------| 
G|---------------------------------------------------------------------------| 
D|---------------------------------------------------------------------------| 
A|---------------------------------------------------------------------------| 
E|---------------------------------------------------------------------------| 


Chorus 2 


e|---------------------------------------------------------------------------| 
B|---------------------------------------------------------------------------| 
G|---------------------------------------------------------------------------| 
D|---------------------------------------------------------------------------| 
A|---------------------------------------------------------------------------| 
E|---------------------------------------------------------------------------| 


Bridge 


e|---------------------------------------------------------------------------| 
B|---------------------------------------------------------------------------| 
G|--8-8---6-6-5---8-8---6-6-5------------------------------------------------| 
D|8-----6-------8-----6------------------------------------------------------| 
A|---------------------------------------------------------------------------| 
E|---------------------------------------------------------------------------| 


Solo 


e|------------------8-9-8------------------------------8-9-8-----------------| 
B|------------6-----------9--------9-------------6-----------9--------9------| 
G|----6—--6-8---8-6---------8-10-8-------6---6-8---8-6---------8-10-8--------| 
D|6-8---8----------------------------6-8---8---------------------------------| 
A|---------------------------------------------------------------------------| 
E|---------------------------------------------------------------------------| 


Chorus 3 


e|---------------------------------------------------------------------------| 
B|---------------------------------------------------------------------------| 
G|---------------------------------------------------------------------------| 
D|---------------------------------------------------------------------------| 
A|---------------------------------------------------------------------------| 
E|---------------------------------------------------------------------------| 


Outro 


e|---------------------------------------------------------------------------| 
B|---------------------------------------------------------------------------| 
G|6-5-6-5-6-5-6-5-6----------------------------------------------------------| 
D|---------------------------------------------------------------------------| 
A|---------------------------------------------------------------------------| 
E|---------------------------------------------------------------------------| 

Compartilhe esta música: novo

QR Code
Copiar