Everybody

Don Broco

Intro 

e|-----------------------------------------------------------| 
B|-----------------------------------------------------------| 
G|-----------------------------------------------------------| 
D|-----------------------------------------------------------| 
A|-----------------------------------------------------------| 
D|-5-5-5-5--5-5-5-5--5--5-5-5-5--5-5-5-5--5-5-5-5--5--5-5-5-5|x2 


Chorus 

e|-----------------------------------------------------------| 
B|-----------------------------------------------------------| 
G|-----------------------------------------------------------| 
D|-----------------------------------------------------------| 
A|-----------------------------------------------------------| 
D|-1-1-1-1--1-1-1-1--1--1-1-1-1--1-1-1-1--1-1-1-1--1--1-1-1-1| 

e|-----------------------------------------------------------| 
B|-----------------------------------------------------------| 
G|-----------------------------------------------------------| 
D|-----------------------------------------------------------| 
A|-----------------------------------------------------------| 
D|-5-5-5-5--5-5-5-5--5--5-5-5-5--5-5-5-5--5-5-5-5--5--5-5-5-5| 

e|-----------------------------------------------------------| 
B|-----------------------------------------------------------| 
G|-----------------------------------------------------------| 
D|-----------------------------------------------------------| 
A|-----------------------------------------------------------| 
D|-1-1-1-1--1-1-1-1--1--1-1-1-1--1-1-1-1--1-1-1-1--1--1-1-1-1| 


Post-Chorus 

e|-----------------------------------| 
B|-----------------------------------| 
G|-----------------------------------| 
D|-----------------------------------| 
A|-----------------------------------| 
D|-5--5--5-3-5--5-5-8--10--8--7--5-5-|x2 

e|-----------------------------------| 
B|-----------------------------------| 
G|-----------------------------------| 
D|-----------------------------------| 
A|-----------------------------------| 
D|-1--1--5-3-5--5-5-8--10--8--7--5-5-| 

e|-----------------------------------| 
B|-----------------------------------| 
G|-----------------------------------| 
D|-----------------------------------| 
A|-----------------------------------| 
D|-5--5--5-3-5--5-5-8--10--8--7--5-5-| 

e|-----------------------------------| 
B|-----------------------------------| 
G|-----------------------------------| 
D|-----------------------------------| 
A|-----------------------------------| 
D|-1--1--5-3-5--5-5-8--10--8--7--5-5-| 


Verse 


Chorus 

e|-----------------------------------------------------------| 
B|-----------------------------------------------------------| 
G|-----------------------------------------------------------| 
D|-----------------------------------------------------------| 
A|-----------------------------------------------------------| 
D|-5-5-5-5--5-5-5-5--5--5-5-5-5--5-5-5-5--5-5-5-5--5--5-5-5-5| 

e|-----------------------------------------------------------| 
B|-----------------------------------------------------------| 
G|-----------------------------------------------------------| 
D|-----------------------------------------------------------| 
A|-----------------------------------------------------------| 
D|-1-1-1-1--1-1-1-1--1--1-1-1-1--1-1-1-1--1-1-1-1--1--1-1-1-1| 

e|-----------------------------------------------------------| 
B|-----------------------------------------------------------| 
G|-----------------------------------------------------------| 
D|-----------------------------------------------------------| 
A|-----------------------------------------------------------| 
D|-5-5-5-5--5-5-5-5--5--5-5-5-5--5-5-5-5--5-5-5-5--5--5-5-5-5| 

e|-----------------------------------------------------------| 
B|-----------------------------------------------------------| 
G|-----------------------------------------------------------| 
D|-----------------------------------------------------------| 
A|-----------------------------------------------------------| 
D|-1-1-1-1--1-1-1-1--1--1-1-1-1--1-1-1-1--1-1-1-1--1--1-1-1-1| 


Post-Chorus 

e|-----------------------------------| 
B|-----------------------------------| 
G|-----------------------------------| 
D|-----------------------------------| 
A|-----------------------------------| 
D|-5--5--5-3-5--5-5-8--10--8--7--5-5-| 

e|-----------------------------------| 
B|-----------------------------------| 
G|-----------------------------------| 
D|-----------------------------------| 
A|-----------------------------------| 
D|-1--1--5-3-5--5-5-8--10--8--7--5-5-| 

e|-----------------------------------| 
B|-----------------------------------| 
G|-----------------------------------| 
D|-----------------------------------| 
A|-----------------------------------| 
D|-5--5--5-3-5--5-5-8--10--8--7--5-5-| 

e|-----------------------------------| 
B|-----------------------------------| 
G|-----------------------------------| 
D|-----------------------------------| 
A|-----------------------------------| 
D|-1--1--5-3-5--5-5-8--10--8--7--5-5-| 


Verse 


Middle Eight Played 4 Times 

e|------------------------------| 
B|------------------------------| 
G|------------------------------| 
D|------------------------------| 
A|------------------------------| 
D|-5-5-5-5--5-5-5-5--5--5-5-5-5-| 

e|------------------------------| 
B|------------------------------| 
G|------------------------------| 
D|------------------------------| 
A|------------------------------| 
D|-0-0-0-0--0-0-0-0--0--0-0-0-0-| 

e|------------------------------| 
B|------------------------------| 
G|------------------------------| 
D|------------------------------| 
A|------------------------------| 
D|-1-1-1-1--1-1-1-1--1--1-1-1-1-|x2 


Post-Chorus 

e|-----------------------------------| 
B|-----------------------------------| 
G|-----------------------------------| 
D|-----------------------------------| 
A|-----------------------------------| 
D|-5--5--5-3-5--5-5-8--10--8--7--5-5-| 

e|-----------------------------------| 
B|-----------------------------------| 
G|-----------------------------------| 
D|-----------------------------------| 
A|-----------------------------------| 
D|-1--1--5-3-5--5-5-8--10--8--7--5-5-| 

e|-----------------------------------| 
B|-----------------------------------| 
G|-----------------------------------| 
D|-----------------------------------| 
A|-----------------------------------| 
D|-5--5--5-3-5--5-5-8--10--8--7--5-5-| 

e|-----------------------------------| 
B|-----------------------------------| 
G|-----------------------------------| 
D|-----------------------------------| 
A|-----------------------------------| 
D|-1--1--5-3-5--5-5-8--10--8--7--5-5-| 

e|-----------------------------------| 
B|-----------------------------------| 
G|-----------------------------------| 
D|-----------------------------------| 
A|-----------------------------------| 
D|-5--5--5-3-5--5-5-8--10--8--7--5-5-| 

e|-----------------------------------| 
B|-----------------------------------| 
G|-----------------------------------| 
D|-----------------------------------| 
A|-----------------------------------| 
D|-1--1--5-3-5--5-5-8--10--8--7--5-5-| 

e|-----------------------------------| 
B|-----------------------------------| 
G|-----------------------------------| 
D|-----------------------------------| 
A|-----------------------------------| 
D|-5--5--5-3-5--5-5-8--10--8--7--5-5-| 

e|-----------------------------------| 
B|-----------------------------------| 
G|-----------------------------------| 
D|-----------------------------------| 
A|-----------------------------------| 
D|-1--1--5-3-5--5-5-8--10--8--7--5-5-| 


Outro 

e|--------------------------------------------------------| 
B|--------------------------------------------------------| 
G|--------------------------------------------------------| 
D|--------------------------------------------------------| 
A|--------------------------------------------------------| 
D|-8-8-8-8--8-8-8-8----10-10-10-10-10-10-10-10----0-0-0-0-| (The last 0 can be played with a 12 too.) 


The song is very repetitive around 2 main segments, with a middle 8, timings are very simple. 

-Samm K 

Compartilhe esta música: novo

QR Code
Copiar