Intro 

e|------------------------------------------------| 
B|------------------------------------------------| 
G|------------------------------------------------| 
D|------------------------------------------------| 
A|------------------------------------------------| 
E|--1--3-4-3--4-6-4--3--1-0-1---------------------| 




Riff 1 

e|------------------------------------------------| 
B|------------------------------------------------| 
G|------------------------------------------------| 
D|------------------------------------------------| 
A|---------------------------------------0-0-0-0--| 
E|0-3-0-0-0-0--3-0-0-0-0--3-0-0--3-0-0-3----------| 


Riff 2 

e|------------------------------------------------| 
B|------------------------------------------------| 
G|------------------------------------------------| 
D|------------------------------------------------| 
A|----2-2-2-2----2-2-2-2----2-2----2-2------------| 
E|--3----------3----------3------3-----3-5-5-5-5--| 


Riff 3 

e|------------------------------------------------| 
B|------------------------------------------------| 
G|------------------------------------------------| 
D|---------------------------------------0-0-0-0--| 
A|--3-0-0-0-0--3-0-0-0-0--3-0-0--3-0-0-3----------| 
E|------------------------------------------------| 

e|------------------------------------------------| 
B|------------------------------------------------| 
G|------------------------------------------------| 
D|---------------------------------0-1-0----------| 
A|--3-0-0-0-0--3-0-0-0-0--3-0-0--3-------3-2------| 
E|------------------------------------------------| 


Riff 4 

e|------------------------------------------------| 
B|------------------------------------------------| 
G|------------------------------------------------| 
D|--2---0-----------------------0-2---------------| 
A|----2---0-----------------0-2-------------------| 
E|----------3-2-0-----0-2-3-----------------------| 

 

Compartilhe esta música: novo

QR Code
Copiar