Oh Pacific So Specific

Divided By Friday

Tom: E
INTRO/VERSE 
(Acoustic) 
E|-7-6-11-6-| 
B|-9-7-12-7-| 
G|-8-6-11-6-| 
D|----------| 
A|----------| 
D|----------| 

Pre-Chorus (part 1) 

Electric 2 
Clean 
E|--------------------| 
B|--------------------| 
G|--------------------| 
D|-14-9-6-9--14-9-6-4-| 
A|-14-9-6-9--14-9-6-4-| 
D|-14-9-6-9--14-9-6-4-| 

Pre-Chorus (part 2) 

Electric 2 
(palm mute) 
E|-----| 
B|-----| 
G|-----| 
D|-2-4-| 
A|-2-4-| 
D|-2-4-| 

Chorus (part 1) 

Electric 1 

E|----------| 
B|----------| 
G|-11-6-8-9-| 
D|-x--x-x-x-| 
A|-9--4-6-7-| 
D|----------| 

Electric 2 

E|---------| 
B|---------| 
G|---------| 
D|-9-4-6-2-| 
A|-9-4-6-2-| 
D|-9-4-6-2-| 

Chorus (part 2) starts and 'and your parents will hate me' 

Electric 1  

E|----------| 
B|----------| 
G|-11-6-8-6-| 
D|-x--x-x-x-| 
A|-9--4-6-4-| 
D|----------| 

Electric 2 

E|---------| 
B|---------| 
G|---------| 
D|-6-4-2-4-| 
A|-6-4-2-4-| 
D|-6-4-2-4-| 

VERSE 

Electric 1 
Clean Distortion 
E|-7-6-11-6-| 
B|-9-7-12-7-| 
G|-8-6-11-6-| 
D|----------| 
A|----------| 
D|----------| 

Pre-Chorus (part 1+2) 

Chorus 

BRIDGE (part 1) 

Acoustic 

E|-7-6-11-6-| 
B|-9-7-12-7-| 
G|-8-6-11-6-| 
D|----------| 
A|----------| 
D|----------| 

BRIDGE (part 2) 

Electric 2 
(palm mute) 
E|---------| 
B|---------| 
G|---------| 
D|-6-4-9-4-| 
A|-6-4-9-4-| 
D|-6-4-9-4-| 

BRIDGE (part 3) 

Electric 1 
(listen to song for when to play) 
E|----------------| 
B|----------------| 
G|-13\11----16\15-| 
D|-x--x-----x--x--| 
A|-11\9-----14\13-| 
D|----------------| 

Electric 2 

E|------| 
B|------| 
G|------| 
D|-6666-| x2 
A|-6666-| 
D|-6666-| 

Chorus VARIATION 

(E same, match E with vocals, basically the same 

Compartilhe esta música: novo

QR Code
Copiar