Oh Holy Night

Divided By Friday

Tom: D
VERSE (Piano) 

Chorus 

Electric  

E|----------------------------| 
B|----------------------------| 
G|----------------------------| 
D|-7-5-3-7----10-9-7-3-2-0-10-| 
A|-7-5-3-7----10-9-7-3-2-0-10-| 
D|-7-5-3-7----10-9-7-3-2-0-10-| 

ACOUSTIC 

E|-----------------------------| 
B|-----------------------------| 
G|-----------------------12----| 
D|-7-5-3-7----10-9-7-3-2-12-10-| 
A|-7-5-3-7----10-9-7-3-2-10-10-| 
E|-5-3-1-5----8--7-5-1-0----8--| 

POST 

Electric  

E|-----------------| 
B|-----------------| 
G|-----------------| 
D|-5-10----10-5-10-| 
A|-5-10----10-5-10-| 
D|-5-10----10-5-10-| 

Acoustic 

E|--------------| 
B|--------------| 
G|---5----5---5-| 
D|-5-5----5-5-5-| 
A|-5-3----3-5-3-| 
E|-3--------3---| 

VERSE (part 1) 

NOTHING 

VERSE (part 2) 

Electric  

E|-----------------------| 
B|-----------------------| 
G|-----------------------| 
D|-----2-----------------| 
A|-3-5---5-3---0-2-3-5-7-| 
D|-----------5-----------| 

Pre-Chorus 

Acoustic 
(pm building) 
E|---| 
B|---| 
G|-5-| 
D|-5-| 
A|-3-| 
E|---| 

Chorus 

POST 

Electric 1 

E|------------------| 
B|------------------| 
G|------------------| 
D|-5-10-10-5--7-9-9-| 
A|-5-10-10-5--7-9-7-| 
D|-5-10-10-5--7-9-7-| 

Acoustic 

E|------------------| 
B|------------------| 
G|---5----5---------| 
D|-5-5----5-5-7-9-7-| 
A|-5-3----3-5-7-9-7-| 
E|-3--------3-5-7-5-| 

Compartilhe esta música: novo

QR Code
Copiar