Disappoint Surprise

Divided By Friday

Tom: D

Intro 
Guitar 1: 
E||------------------------|--------------------------| 
B||------------------------|--------------------------| 
G||------------------------|--------------------------| 
D||-----------------11b12--|--------------------------| 
A||--------12-12-12--------|--------12-(12-12-12-12)--| 
D||--9-9-9-----------------|--9-9-9-------------------| 


Guitar 2: 
E||---------------------------|-----------------------------| 
B||---------------------------|-----------------------------| 
G||---------------------------|-----------------------------| 
D||--12-12-12-12-12-12-12-12--|--12-12-12-12-(12-12-12-12)--| 
A||---------------------------|-----------------------------| 
D||---------------------------|-----------------------------| 



Pre-Verse 
Guitar 1: 
E||------------------------------------------------|----------------------------------| 
B||------------------------------------------------|----------------------------------| 
G||------------------------------------------------|--------7-7-7-------6-6---6b7r6~--| 
D||-----------------11b12r11-----------------------|----------------------------------| 
A||--------12-12-12----------12/14\12--------------|----------------------------------| 
D||--9-9-9----------------------------12-12/14-14--|--5-5-5-------7-7-7-----7---------| 


Guitar 2: 
E||----------------------------------------| 
B||----------------------------------------| 
G||----------------------------------------| 
D||--99999999-77777777-55555555-2222/7777--| 
A||--99999999-77777777-55555555-2222/7777--| 
D||--99999999-77777777-55555555-2222/7777--| 


Guitar 1: 
E||-------------------------------------------|----------------------| 
B||-------------------------------------------|----------------------| 
G||-------------------------------------------|--4444-6666-7777-9~\--| 
D||--------------------------------14-14-14\--|--xxxx-xxxx-xxxx-x-\--| 
A||--------12-12-12-12-12---------------------|--2222-4444-5555-7~\--| 
D||--9-9-9----------------11-11-11------------|----------------------| 


Guitar 2: 
E||----------------------------------| 
B||----------------------------------| 
G||----------------------------------| 
D||--99999999-77777777-2222----5555--| 
A||--99999999-77777777-2222----5555--| 
D||--99999999-77777777-2222----5555--| 
                       ....    .... 


Verse 
Guitar 1: 
E||-------------------------------------------------------------------| 
B||--------------3-3-----5-5-----3-3-------------3-3-----5-5-----3-3--| 
G||----------2-2-----2-2-----2-2-------------2-2-----2-2-----2-2------| 
D||------4-4-----------------------------4-4--------------------------| 
A||--2-2-----------------------------0-0------------------------------| 
D||-------------------------------------------------------------------| 
     . . . . . . . . . . . . . . . . . . . . . . . . . . . . . . . . 


E||-------------------------------------------------------------------| 
B||--------------3-3-----5-5-----3-3-------------3-3-----5-5-----3-3--| 
G||----------2-2-----2-2-----2-2-------------2-2-----2-2-----2-2------| 
D||------4-4-----------------------------4-4--------------------------| 
A||-------------------------------------------------------------------| 
D||--2-2-----------------------------5-5------------------------------| 
     . . . . . . . . . . . . . . . . . . . . . . . . . . . . . . . . 



Guitar 2: 
E||-----------------------------------------------------------------------| 
B||-----------------------------------------------------------------------| 
G||-----------------------------------------------------------------------| 
D||--9999999999999999-7777777777777777-2222222222222222-5555555555555555--| 
A||--9999999999999999-7777777777777777-2222222222222222-5555555555555555--| 
D||--9999999999999999-7777777777777777-2222222222222222-5555555555555555--| 
     ................ ................ ................ ................ 



Guitar 1: 
E||-------------------------------------------------------------------| 
B||--------------3-3-----5-5-----3-3-------------3-3-----5-5-----3-3--| 
G||----------2-2-----2-2-----2-2-------------2-2-----2-2-----2-2------| 
D||------4-4-----------------------------4-4--------------------------| 
A||--2-2-----------------------------0-0------------------------------| 
D||-------------------------------------------------------------------| 


E||-----------------------------------------------------------------| 
B||--------------3-3-----5-5-----3-3-------------3-3-----5-5-----3--| 
G||----------2-2-----2-2-----2-2-------------2-2-----2-2-----2-2----| 
D||------4-4-----------------------------4-4------------------------| 
A||-----------------------------------------------------------------| 
D||--2-2-----------------------------5-5----------------------------| 


Guitar 2: 
E||----------------------------------------------------------------------| 
B||----------------------------------------------------------------------| 
G||----------------------------------------------------------------------| 
D||--9999999999999999-7777777777777777-2222222222222222-555555555555555--| 
A||--9999999999999999-7777777777777777-2222222222222222-555555555555555--| 
D||--9999999999999999-7777777777777777-2222222222222222-555555555555555--| 
     ................ ................ ................ ............... 



Pre-Chorus 
Guitar 1/2: 
E||---------------------------------------------------------------------------| 
B||---------------------------------------------------------------------------| 
G||---------------------------------------------------------------------------| 
D||--2---0-2--222--222-----4--5--55--555--555--999--999--999--999--777777777--| 
A||--2---0-2--222--222-----4--5--55--555--555--999--999--999--999--777777777--| 
D||--2---0-2--222--222--2224--5--55--555--555--999--999--999--999--777777777--| 
                        ... 


Chorus 
Guitar 1: 
E||---------------------------------------------------------| 
B||---------------------------------------------------------| 
G||--77777-1414141414141414-1414-1212-1111-999999-11111111--| 
D||--xxxxx-x-x-x-x-x-x-x-x--x-x--x-x--x-x--xxxxxx-x-x-x-x---| 
A||--55555-1212121212121212-1212-1010-9-9--777777-9-9-9-9---| 
D||---------------------------------------------------------| 


E||------------------------------------------| 
B||------------------------------------------| 
G||--7777777-66666-7777-4444-6666-7777-9999--| 
D||--xxxxxxx-xxxxx-xxxx-xxxx-xxxx-xxxx-xxxx--| 
A||--5555555-44444-5555-2222-4444-5555-7777--| 
D||------------------------------------------| 


Guitar 2: 
E||----------------------------------------|-----------------------------------------| 
B||----------------------------------------|-----------------------------------------| 
G||----------------------------------------|-------------------------4444------7777--| 
D||--99999999-77777777-55555555-2222/7777--|--99999999-77777777-2222------5555-------| 
A||--99999999-77777777-55555555-2222/7777--|--99999999-77777777-2222------5555-------| 
D||--99999999-77777777-55555555-2222/7777--|--99999999-77777777-2222------5555-------| 
                                                                ....      .... 



Guitar 1: 
E||------------------------------------------------|----------------------------------| 
B||------------------------------------------------|----------------------------------| 
G||------------------------------------------------|--------7-7-7-------6-6---6b7r6~--| 
D||-----------------11b12r11-----------------------|----------------------------------| 
A||--------12-12-12----------12/14\12--------------|----------------------------------| 
D||--9-9-9----------------------------12-12/14-14--|--5-5-5-------7-7-7-----7---------| 


Guitar 2: 
E||----------------------------------------| 
B||----------------------------------------| 
G||----------------------------------------| 
D||--99999999-77777777-55555555-2222/7777--| 
A||--99999999-77777777-55555555-2222/7777--| 
D||--99999999-77777777-55555555-2222/7777--| 


Guitar 1: 
E||-------------------------------------------|----------------------| 
B||-------------------------------------------|----------------------| 
G||-------------------------------------------|--4444-6666-7777-999--| 
D||--------------------------------14-14-14\--|--xxxx-xxxx-xxxx-xxx--| 
A||--------12-12-12-12-12---------------------|--2222-4444-5555-777--| 
D||--9-9-9----------------11-11-11------------|----------------------| 


Guitar 2: 
E||---------------------------------------| 
B||---------------------------------------| 
G||---------------------------------------| 
D||--99999999-77777777-55555555-77777777--| 
A||--99999999-77777777-55555555-77777777--| 
D||--99999999-77777777-55555555-77777777--| 



Verse 
Guitar 1: 
E||-----------------------------------| 
B||-----------------------------------| 
G||-----------------------------------| 
D||-----------------------------------| x4 
A||--0-4-5-0-5-7-0-9-7-0-5-7-0-4-5-4--| 
D||-----------------------------------| 


Guitar 2: 
E||-----------------------------------------------------------------------| 
B||-----------------------------------------------------------------------| 
G||-----------------------------------------------------------------------| 
D||--9999999999999999-7777777777777777-2222222222222222-5555555555555555--| 
A||--9999999999999999-7777777777777777-2222222222222222-5555555555555555--| 
D||--9999999999999999-7777777777777777-2222222222222222-5555555555555555--| 
     ................ ................ ................ ................ 



Guitar 1: 
E||-----------------------------------------| 
B||----------------10-----------------10----| 
G||--11-9------9------9-11-9------9------9--| 
D||-------12-9---9-----------12-9---9-------| x4 
A||-----------------------------------------| 
D||-----------------------------------------| 
          .  . . .           .  . . . 


Guitar 2: 
E||------------------------------------------------------------| 
B||------------------------------------------------------------| 
G||------------------------------------------------------------| 
D||--9--9--9--9--9--9------------7--7--7--7------7-------------| 
A||--9--9--9--9--9--9------------7--7--7--7------7-------------| 
D||--9--9--9--9--9--9--99999999--7--7--7--7--77777-7-77777777--| 
                       ........              ....  . ........ 

E||------------------------------------------------------------| 
B||------------------------------------------------------------| 
G||------------------------------------------------------------| 
D||------5--5--------5------5---2--2--2--2---------------------| 
A||------5--5--------5------5---2--2--2--2---------------------| 
D||--55555--5--5555555--5-555---2--2--2--2--5555555555555555---| 
     ....      ......   . ..                ................ 



Pre-Chorus 
Guitar 1/2: 
E||-------------------------------------------| 
B||-------------------------------------------| 
G||-------------------------------------------| 
D||--12~-----11~-----5-5-5--------------------| 
A||--9-~-----7-~-----5-5-5--------------------| 
D||--9-~-----7-~-----5-5-5-----7777777777777--| 
                     . . .     ............. 



Chorus 
Guitar 1: 
E||---------------------------------------------------------| 
B||---------------------------------------------------------| 
G||--77777-1414141414141414-1414-1212-1111-999999-11111111--| 
D||--xxxxx-x-x-x-x-x-x-x-x--x-x--x-x--x-x--xxxxxx-x-x-x-x---| 
A||--55555-1212121212121212-1212-1010-9-9--777777-9-9-9-9---| 
D||---------------------------------------------------------| 


E||------------------------------------------| 
B||------------------------------------------| 
G||--7777777-66666-7777-4444-6666-7777-9999--| 
D||--xxxxxxx-xxxxx-xxxx-xxxx-xxxx-xxxx-xxxx--| 
A||--5555555-44444-5555-2222-4444-5555-7777--| 
D||------------------------------------------| 


Guitar 2: 
E||----------------------------------------|-----------------------------------------| 
B||----------------------------------------|-----------------------------------------| 
G||----------------------------------------|-------------------------4444------7777--| 
D||--99999999-77777777-55555555-2222/7777--|--99999999-77777777-2222------5555-------| 
A||--99999999-77777777-55555555-2222/7777--|--99999999-77777777-2222------5555-------| 
D||--99999999-77777777-55555555-2222/7777--|--99999999-77777777-2222------5555-------| 
                                                                ....      .... 



Guitar 1: 
E||------------------------------------------------|----------------------------------| 
B||------------------------------------------------|----------------------------------| 
G||------------------------------------------------|--------7-7-7-------6-6---6b7r6~--| 
D||-----------------11b12r11-----------------------|----------------------------------| 
A||--------12-12-12----------12/14\12--------------|----------------------------------| 
D||--9-9-9----------------------------12-12/14-14--|--5-5-5-------7-7-7-----7---------| 


Guitar 2: 
E||----------------------------------------| 
B||----------------------------------------| 
G||----------------------------------------| 
D||--99999999-77777777-55555555-2222/7777--| 
A||--99999999-77777777-55555555-2222/7777--| 
D||--99999999-77777777-55555555-2222/7777--| 


Guitar 1: 
E||-------------------------------------------|----------------------| 
B||-------------------------------------------|----------------------| 
G||-------------------------------------------|--4444-6666-7777-999--| 
D||--------------------------------14-14-14\--|--xxxx-xxxx-xxxx-xxx--| 
A||--------12-12-12-12-12---------------------|--2222-4444-5555-777--| 
D||--9-9-9----------------11-11-11------------|----------------------| 


Guitar 2: 
E||---------------------------------------| 
B||---------------------------------------| 
G||---------------------------------------| 
D||--99999999-77777777-55555555-77777777--| 
A||--99999999-77777777-55555555-77777777--| 
D||--99999999-77777777-55555555-77777777--| 



Bridge 
Guitar 1: 
E||-----------------------------------| 
B||--------------0-7------------------| 
G||----6-7---7-9-----9-7-9-6-7---6----| 
D||--7-----7-------------------9---7--| x7 
A||-----------------------------------| 
D||-----------------------------------| 
     . . . . . . . . . . . . . . . . 

Guitar 2: 
E||------------------------------------------------------------| 
B||------------------------------------------------------------| 
G||------------------------------------------------------------| 
D||--5555555555555555-7777777777777777-----9---------9------9--| 
A||--5555555555555555-7777777777777777-----9---------9------9--| 
D||--5555555555555555-7777777777777777-99999-----99999--99999--| 
                                       ....      ....   .... 

E||-----------------------------------------------------------------| 
B||-----------------------------------------------------------------| 
G||-----------------------------------------------------------------| 
D||--5555555555555555-7777777777777777-----9------9-----------------| 
A||--5555555555555555-7777777777777777-----9------9-----------------| 
D||--5555555555555555-7777777777777777-99999--99999--9999999999999--| 
                                       ....   ....   ............. 

E||--------------------------| 
B||--------------------------| 
G||--------------------------| 
D||--5---5---5---7-7---7--7--| 
A||--5---5---5---7-7---7--7--| 
D||--5---5---5---7-7---7--7--| 



Guitar 1: 
E||------------------------| 
B||------------------------| 
G||--6~--7~--9~--7~--9p7~--| 
D||------------------------| 
A||------------------------| 
D||------------------------| 


Guitar 2: 
E||-------------------------| 
B||-------------------------| 
G||-------------------------| 
D||--2----2----2----2----5--| 
A||--2----2----2----2----5--| 
D||--2----2----2----2----5--| 



Interlude 
Guitar 1: 
E||---------------------------------------------------------------| 
B||--7~------------------------------'7~--------------------------| 
G||--7~------------------------'5~---------'7~--------------------| 
D||--------------------------------------------'7~----------------| 
A||---------------------------------------------------------------| 
D||---------------------------------------------------------------| 


Guitar 2: 
E||---------------------------------------------------------------| 
B||---------------------------------------------------------------| 
G||--7~----------------------------------------7~-----11~-----9~--| 
D||--5~-----12~-----12~------------------------5~-----9-~-----7~--| 
A||--5~-----9-~-----7-~------------------------5~-----9-~-----7~--| 
D||--5~-----9-~-----7-~------------------------5~-----9-~-----7~--| 


Guitar 1: 
E||-------------------------------------------------------------------| 
B||--------'7~-----------------------------'7~-------------'7~--------| 
G||--'5~---------'7~-------'7~-------'5~---------'7~-'5~---------'7~--| 
D||------------------'7~---------'7~----------------------------------| x2 
A||-------------------------------------------------------------------| 
D||-------------------------------------------------------------------| 


Guitar 2: 
E||--------------------------------------| 
B||--------------------------------------| 
G||--------------------------------------| 
D||--55555555-99999999-7777777777777777--| x2 
A||--55555555-99999999-7777777777777777--| 
D||--55555555-99999999-7777777777777777--| 
     ........ ........ ................ 


Guitar 1: 
E||------------------------------------------------------| 
B||------------------------------------------------------| 
G||--777/111111-999-777-6666-777-999-111111-1414141414\--| 
D||--000/0-0-0--000-000-0000-000-000-0-0-0--0-0-0-0-0-\--| 
A||------------------------------------------------------| 
D||------------------------------------------------------| 


Guitar 2: 
E||------------------------------------------------------| 
B||------------------------------------------------------| 
G||------------------------------------------------------| 
D||--5~--------------------------7~----------------------| 
A||--5~--------------------------7~----------------------| 
D||--5~--------------------------7~----------------------| 



Chorus 
Guitar 1: 
E||---------------------------------------|----------------------------------------| 
B||---------------------------------------|----------------------------------------| 
G||--0-6-7-0-9-11-0-6-7-0-9-11-0-14-0-14--|--0-6-7-0-9-11-0-14-0-12-0-11-0-9-11-9--| 
D||---------------------------------------|----------------------------------------| 
A||---------------------------------------|----------------------------------------| 
D||---------------------------------------|----------------------------------------| 


E||---------------------------------------|----------------------------------------| 
B||-----------------------------------15--|------------------------------15-15-15--| 
G||--0-6-7-0-9-11-0-6-7-0-9-11-0-14-0-----|--0-11-0-9-0-11-0-9-0-7-0-6-0-----------| 
D||---------------------------------------|----------------------------------------| 
A||---------------------------------------|----------------------------------------| 
D||---------------------------------------|----------------------------------------| 


E||---------------------------------------|-----------------------------------------| 
B||---------------------------------------|----------------------12---14---15---15--| 
G||--0-6-7-0-9-11-0-6-7-0-9-11-0-14-0-14--|--0-6-7-0-9-11-0-14-0----0----0----0-----| 
D||---------------------------------------|-----------------------------------------| 
A||---------------------------------------|-----------------------------------------| 
D||---------------------------------------|-----------------------------------------| 


E||---------------------------------------|----------------------------------------| 
B||---------------------------------------|----------------------------------------| 
G||--0-6-7-0-9-11-0-6-7-0-9-11-0-14-0-14--|--0-0-0-11-0-9-0-11-0-9-0-7-0-9-0-6-7\--| 
D||---------------------------------------|----------------------------------------| 
A||---------------------------------------|----------------------------------------| 
D||---------------------------------------|----------------------------------------| 


Guitar 2: 
E||----------------------------------------|-------------------------------------------| 
B||----------------------------------------|-------------------------------------------| 
G||----------------------------------------|-------------------------------------------| 
D||--99999999-77777777-55555555-2222/7777--|--99999999-77777777--------------5----555--| 
A||--99999999-77777777-55555555-2222/7777--|--99999999-77777777--------------5----555--| 
D||--99999999-77777777-55555555-2222/7777--|--99999999-77777777-222222222222-55555555--| 
                                                                ............  .... 

E||----------------------------------------|------------------------------------------| 
B||----------------------------------------|------------------------------------------| 
G||----------------------------------------|------------------------------------------| 
D||--99999999-77777777-55555555-2222/7777--|--99999999-77777777-55555555-77777777-9\--| 
A||--99999999-77777777-55555555-2222/7777--|--99999999-77777777-55555555-77777777-9\--| 
D||--99999999-77777777-55555555-2222/7777--|--99999999-77777777-55555555-77777777-9\--| 


Guitar 1: 
E||--------------------------------------| 
B||--------------------------------------| 
G||--------------------------------------| 
D||--------------------------------------| 
A||-------9----9-10-9---------9----9-10--| 
D||--9-12---12--------12-9-12---12-------| 
     . .  . .  . .  . .  . .  . .  . . 


Outro 
Guitar 1/2: 

E||-------| 
B||-------| 
G||-------| 
D||--14\--| 
A||--14\--| 
D||--14\--| 


Guitar 1: 
E||------------------------------------------|-------------------------------------------| 
B||------------------------------------------|-------------------------------------------| 
G||------------------------------------------|-------------------------------------------| 
D||------------------------------------------|----------------------------------------9--| 
A||-------9----9-10-9---------9----9-10------|-------9----9-10-9---------9----9-10----9--| 
D||--9-12---12--------12-9-12---12------12~--|--9-12---12--------12-9-12---12------12-9--| 


Guitar 2: 
E||-----------------------------------------| 
B||-----------------------------------------| 
G||-----------------------------------------| 
D||--99999999-77777777-55555555-77777777-9--| 
A||--99999999-77777777-55555555-77777777-9--| 
D||--99999999-77777777-55555555-77777777-9--| 




Tablature Legend 
---------------- 
 h   - hammer-on 
 p   - pull-off 
 b   - bend 
 r   - release bend 
 *   - pinch harmonic 
 '   - natural harmonic 
 x   - mute note 
 .   - palm mute 
 /   - slide down 
 \   - slide up 

Compartilhe esta música: novo

QR Code
Copiar