Yr Not Far

Diiv

Intro: (palm mute) 
e|---------------------|---------------------| 
B|---------------------|---------------------| 
G|---------------------|---------------------| 
D|---------------------|---------------------| 
A|-8888-8888-8888-8888-|-8888-8888-8885-5555-| 
E|---------------------|---------------------| 

Verse: 
  Guitar 1 (palm mute)             x2 
e|-------------------------------------|---------------------|---------------------| 
B|-------------------------------------|---------------------|---------------------| 
G|-------------------------------------|---------------------|---------------------| 
D|-------------------------------------|---------------------|---------------------| 
A|-12121212-12121212-12121212-12121212-|-8888-8888-8888-8888-|-8888-8888-8885-5555-| 
E|-------------------------------------|---------------------|---------------------| x3 
  Guitar 2 
e|-------------------------------------------|-----------------------------------------| 
B|-------------------------------------------|-----------------------------------------| 
G|-------------------------------------------|-----------------------------------------| 
D|-------------------------------------------|-----------------------------------------| 
A|-0000-0000-/5555-5555-0000-0000-/5555-3333-|-1111-1111-----------1111-1111------3333-| 
E|-------------------------------------------|-----------3333-3333-----------3333------| x3 
  Guitar 3 (comes in right before Chorus) 
e|-------------------------------------------| 
B|-------------------------------------------| 
G|---------------------------------7777-7777-| (palm mute) 
D|-------------------------------------------| 
A|-------------------------------------------| 
E|-------------------------------------------| 

Chorus 1: 
e|-----------------------------------55------|-----------------------------------55-----| 
B|-------------------6--6---------------66---|--------------------------------------666-| 
G|-7777-7775--777-777----77-777-5577-------7-|-7777-7775--777-7775--777-777-5577--------| 
D|-------------------------------------------|------------------------------------------| 
A|-------------------------------------------|------------------------------------------| 
E|-------------------------------------------|------------------------------------------| 

e|-55-------------------55---------------------| 
B|----66-------------------66----------66-88-6-| 
G|-------777-55777-7777-------777-5577---------| 
D|---------------------------------------------| 
A|---------------------------------------------| 
E|---------------------------------------------| x2 

Repeat VERSE 

Chorus 2: 
e|-55-------------------55---------------------| 
B|----66-------------------66----------66-88-6-| 
G|-------777-55777-7775-------777-5577---------| 
D|---------------------------------------------| 
A|---------------------------------------------| 
E|---------------------------------------------| x2 

e|-55-------------------55---------------------| 
B|----66-------------------66----------66-88-6-| 
G|-------777-55777-7777-------777-5577---------| 
D|---------------------------------------------| 
A|---------------------------------------------| 
E|---------------------------------------------| x2 

Repeat VERSE 

Chorus 3: 
e|-55-------------------55---------------------|-55-------------------55---------------------| 
B|----66-------------------66----------66-88-6-|----66-------------------66----------66-88-6-| 
G|-------777-55777-7777-------777-5577---------|-------777-55777-7775-------777-5577---------| 
D|---------------------------------------------|---------------------------------------------| 
A|---------------------------------------------|---------------------------------------------| 
E|---------------------------------------------|---------------------------------------------| 

e|-55-------------------55---------------------| 
B|----66-------------------66----------66-88-6-| 
G|-------777-55777-7777-------777-5577---------| 
D|---------------------------------------------| 
A|---------------------------------------------| 
E|---------------------------------------------| x2 

Bridge: 
  Lead 
e|---0--0--0--0--0--0--0--0-|---0--0--0--0--0--0--0--0-| 
B|-18-18-18-18-17-17-17-17--|-15-15-15-15-13-13-13-13--| 
G|--------------------------|--------------------------| 
D|--------------------------|--------------------------| 
A|--------------------------|--------------------------| 
E|--------------------------|--------------------------| 

e|---0--0--0--0--0--0--0--0-|---0--0--0--0--0--0--0--0-| 
B|-18-18-18-18-17-17-17-17--|-15-15-15-15-13-13--------| 
G|--------------------------|-------------------15-14--| 
D|--------------------------|--------------------------| 
A|--------------------------|--------------------------| 
E|--------------------------|--------------------------| 
  Rhythm 
e|----------------------------|------------------------------------| 
B|----------------------------|------------------------------------| 
G|----------------------------|------------------------------------| 
D|-----0------0------0------0-|-------0--------0--------0--------0-| 
A|-8-8----8-8----7-7----7-7---|-10-10----10-10----10-10----10-10---| 
E|----------------------------|------------------------------------| x2 

OUTRO: 
  Lead 
e|-----------------------------------------------------|      |-------| 
B|---------------------------------13-15-15---17-18-18-|      |-15----| 
G|-7-9-10-12---10-12-14-15---14-15---------------------|      |-------| 
D|-----------------------------------------------------|      |-------| 
A|-----------------------------------------------------|      |-------| 
E|-----------------------------------------------------| x2 |-------| 
  Rhythm 
e|-------------------------|-------------------------| 
B|-------------------------|-------------------------| 
G|-------------------------|-------------------------| 
D|-----0-----0-----0-----0-|-----0-----0-----0-----0-| 
A|-1212--1212--1212--1212--|-1212--1212--1313--1212--| 
E|-------------------------|-------------------------| 

e|-------------------------|-------------------------|------| 
B|-------------------------|-------------------------|------| 
G|-------------------------|-------------------------|------| 
D|-----0-----0-----0-----0-|-----0-----0-----0-----0-|------| 
A|-1212--1212--1212--1212--|-1212--1212--1313--1515--|-0----| 
E|-------------------------|-------------------------|------|  

Compartilhe esta música: novo

QR Code
Copiar