Under The Sun

Diiv

Tom: D
Intro 
----- 

Guitar 1 
e|------------------------------------------------| 
B|------------------------------------------------| 
G|-------------------------------14----14----14---|    
D|------------------------------------------------| 
A|-12----12----12----12----12---------------------| 
E|------------------------------------------------| 
   1  e  +  a  2  e  +  a  3  e  +  a  4  e  +  a       
P.M.------------------------------------------| 

   
Bass 
G|---------------------------------|---------------------------------| 
D|---------------------5-------7---|---------------------------------| 
A|---------------------------------|---------------------------------| 
E|---------------------------------|-5-------5-------5-------5-------| 
   1 e + a 2 e + a 3 e + a 4 e + a   1 e + a 2 e + a 3 e + a 4 e + a    

G|---------------------------------|---------------------------------| 
D|---------------------5-------7\\\|\\\\\0-------0---0-------0---0---| 
A|---------------------------------|---------------------------------| 
E|-5-------5-------5---------------|---------------------------------| 
   1 e + a 2 e + a 3 e + a 4 e + a   1 e + a 2 e + a 3 e + a 4 e + a    

G|---------------------------------|---------------------------------| 
D|-----0---0-------0---0---0---0---|---------------------------------| 
A|---------------------------------|-3-------3-------3---3---3-------| 
E|---------------------------------|---------------------------------| 
   1 e + a 2 e + a 3 e + a 4 e + a   1 e + a 2 e + a 3 e + a 4 e + a    

G|---------------------------------|---------------------------------| 
D|---------------3/5---5---5---7---|---------------------------------| 
A|-3---3---3-----------------------|---------------------------------| 
E|---------------------------------|-5-------5---5---5-------5-------| 
   1 e + a 2 e + a 3 e + a 4 e + a   1 e + a 2 e + a 3 e + a 4 e + a    

G|---------------------------------| 
D|---------------------------------| 
A|---------------------------------| 
E|-5-------5-------5---------------| 
   1 e + a 2 e + a 3 e + a 4 e + a   
                   ^after that note immediately repeat from beginning 


Guitar 2 
e|---------------------------------|---------------------------------| 
B|---------------------------------|---------------------------------| 
G|---------------------------------|---------------------------------| 
D|---------------------------------|---------------------------------| 
A|----------------------------(5)--|----(5)-----(4)------------------| 
E|---------------------------------|---------------------------------| 
   1 e + a 2 e + a 3 e + a 4 e + a   1 e + a 2 e + a 3 e + a 4 e + a  

e|---------------------------------|---------------------------------| 
B|---------------------------------|---------------------------------| 
G|---------------------------------|---------------------------------| 
D|-2---2---0-------2---2---0-------|-2---2---0-------2---2---0-------| 
A|---------------------------------|---------------------------------| 
E|---------------------------------|---------------------------------| 
   1 e + a 2 e + a 3 e + a 4 e + a   1 e + a 2 e + a 3 e + a 4 e + a  

e|---------------------------------|---------------------------------| 
B|---------------------------------|---------------------------------| 
G|---------------------------------|---------------------------------| 
D|-4---4---0-------4---4---0-------|-4---4---0-------4---4---0-------| 
A|---------------------------------|---------------------------------| 
E|---------------------------------|---------------------------------| 
   1 e + a 2 e + a 3 e + a 4 e + a   1 e + a 2 e + a 3 e + a 4 e + a  

e|---------------------------------|---------------------------------| 
B|---------------------------------|---------------------------------| 
G|---------------------------------|---------------------------------| 
D|-5---5---0-------5---5---0-------|-5---5---0-----7/9---9---0-------| 
A|---------------------------------|---------------------------------| 
E|---------------------------------|---------------------------------| 
   1 e + a 2 e + a 3 e + a 4 e + a   1 e + a 2 e + a 3 e + a 4 e + a  

e|---------------------------------|---------------------------------| 
B|---------------------------------|---------------------------------| 
G|-----------------------------7---|-----7-------6-------------------| 
D|-7---7---0-------7---7---0-------|---------------------------------| 
A|---------------------------------|---------------------------------| 
E|---------------------------------|---------------------------------| 
   1 e + a 2 e + a 3 e + a 4 e + a   1 e + a 2 e + a 3 e + a 4 e + a  




Chorus (Play 3x) 
------ 

e|------------------------------------------------|------------------------------------------------| 
B|------------------------------------------------|------------------------------------------------| 
G|------------------------------------------------|-11---------------------------------------------| 
D|-------------14----------------12---------------|-------------------11---------------------------| 
A|------------------------------------------------|-------------------------------------14----12---| 
E|------------------------------------------------|------------------------------------------------| 
   1  e  +  a  2  e  +  a  3  e  +  a  4  e  +  a   1  e  +  a  2  e  +  a  3  e  +  a  4  e  +  a 

e|------------------------------------------------|------------------------------------------------| 
B|------------------------------------------------|------------------------------------------------| 
G|------------------------------------------------|-11---------------------------------------------| 
D|-------------14----------------12---------------|-------------------11---------------------------| 
A|------------------------------------------------|-------------------------------------14----12---| 
E|------------------------------------------------|------------------------------------------------| 
   1  e  +  a  2  e  +  a  3  e  +  a  4  e  +  a   1  e  +  a  2  e  +  a  3  e  +  a  4  e  +  a 

e|------------------------------------------------|------------------------------------------------| 
B|------------------------------------------------|------------------------------------------------| 
G|------------------------------------------------|-11---------------------------------------------| 
D|-------------14----------------12---------------|-------------------11---------------------------| 
A|------------------------------------------------|-------------------------------------14----12---| 
E|------------------------------------------------|------------------------------------------------| 
   1  e  +  a  2  e  +  a  3  e  +  a  4  e  +  a   1  e  +  a  2  e  +  a  3  e  +  a  4  e  +  a 

e|------------------------------------------------|------------------------------------------------| 
B|------------------------------------------------|------------------------------------------------| 
G|------------------------------------------------|------------------------------------------------| 
D|-------------------11----------11---------------|-------------------11----------11---------------| 
A|-------12----14----------------------14----12---|-------12----14----------------------14----12---| 
E|------------------------------------------------|------------------------------------------------| 
   1  e  +  a  2  e  +  a  3  e  +  a  4  e  +  a   1  e  +  a  2  e  +  a  3  e  +  a  4  e  +  a 




verse 1 (Play 2x) 
------- 

e|------------------------------------------------|------------------------------------------------| 
B|------------------------------------------------|------------------------------------------------| 
G|------------------------------------------------|-------------11----------12----------14---------| 
D|-------------------------11----------12---------|-14---------------------------------------------| 
A|-12----------14---------------------------------|------------------------------------------------| 
E|------------------------------------------------|------------------------------------------------| 
   1  e  +  a  2  e  +  a  3  e  +  a  4  e  +  a   1  e  +  a  2  e  +  a  3  e  +  a  4  e  +  a 

e|------------------------------------------------|-------------12---------------------------------| 
B|------------------------------------------------|-------------------------15----------14----12---| 
G|------------------------------------------------|------------------------------------------------| 
D|-------------------------11----------12---------|-14---------------------------------------------| 
A|-12----------14---------------------------------|------------------------------------------------| 
E|------------------------------------------------|------------------------------------------------| 
   1  e  +  a  2  e  +  a  3  e  +  a  4  e  +  a   1  e  +  a  2  e  +  a  3  e  +  a  4  e  +  a 

e|------------------------------------------------|------------------------------------------------| 
B|------------------------------------------------|------------------------------------------------| 
G|-14---------------------------------------------|-------------------------11----------12---------| 
D|-------------------------------------11---------|-12----------14---------------------------------| 
A|-------------12----------14---------------------|------------------------------------------------| 
E|------------------------------------------------|------------------------------------------------| 
   1  e  +  a  2  e  +  a  3  e  +  a  4  e  +  a   1  e  +  a  2  e  +  a  3  e  +  a  4  e  +  a 

e|------------------------------------------------|-------------------12----------14----------15---| 
B|-------12----------------12----------12----14---|-------15---------------------------------------| 
G|-14----------14----------------14---------------|------------------------------------------------| 
D|------------------------------------------------|------------------------------------------------| 
A|------------------------------------------------|------------------------------------------------| 
E|------------------------------------------------|------------------------------------------------| 
   1  e  +  a  2  e  +  a  3  e  +  a  4  e  +  a   1  e  +  a  2  e  +  a  3  e  +  a  4  e  +  a 




Chorus (Play 3x) 
------ 

e|------------------------------------------------|------------------------------------------------| 
B|------------------------------------------------|------------------------------------------------| 
G|------------------------------------------------|-11---------------------------------------------| 
D|-------------14----------------12---------------|-------------------11---------------------------| 
A|------------------------------------------------|-------------------------------------14----12---| 
E|------------------------------------------------|------------------------------------------------| 
   1  e  +  a  2  e  +  a  3  e  +  a  4  e  +  a   1  e  +  a  2  e  +  a  3  e  +  a  4  e  +  a 

e|------------------------------------------------|------------------------------------------------| 
B|------------------------------------------------|------------------------------------------------| 
G|------------------------------------------------|-11---------------------------------------------| 
D|-------------14----------------12---------------|-------------------11---------------------------| 
A|------------------------------------------------|-------------------------------------14----12---| 
E|------------------------------------------------|------------------------------------------------| 
   1  e  +  a  2  e  +  a  3  e  +  a  4  e  +  a   1  e  +  a  2  e  +  a  3  e  +  a  4  e  +  a 

e|------------------------------------------------|------------------------------------------------| 
B|------------------------------------------------|------------------------------------------------| 
G|------------------------------------------------|-11---------------------------------------------| 
D|-------------14----------------12---------------|-------------------11---------------------------| 
A|------------------------------------------------|-------------------------------------14----12---| 
E|------------------------------------------------|------------------------------------------------| 
   1  e  +  a  2  e  +  a  3  e  +  a  4  e  +  a   1  e  +  a  2  e  +  a  3  e  +  a  4  e  +  a 

e|------------------------------------------------|------------------------------------------------| 
B|------------------------------------------------|------------------------------------------------| 
G|------------------------------------------------|------------------------------------------------| 
D|-------------------11----------11---------------|-------------------11----------11---------------| 
A|-------12----14----------------------14----12---|-------12----14----------------------14----12---| 
E|------------------------------------------------|------------------------------------------------| 
   1  e  +  a  2  e  +  a  3  e  +  a  4  e  +  a   1  e  +  a  2  e  +  a  3  e  +  a  4  e  +  a 




Bridge 
------ 

e|---------------------------------|---------------------------------| 
B|---------------------------------|---------------------------------| 
G|------------------------ (Hard to tell exact timing, --------------| 
D|---------0---2---- but definitely open D and E for 12 bars) -------| 
A|---------------------------------|---------------------------------| 
E|---------------------------------|---------------------------------| 

e|---------------------------------|---------------------------------| 
B|-7---7---0-------7---7---0-------|-7---7---0-------7---7---0-------| 
G|---------------------------------|---------------------------------| 
D|---------------------------------|---------------------------------| 
A|---------------------------------|---------------------------------| 
E|---------------------------------|---------------------------------| 
   1 e + a 2 e + a 3 e + a 4 e + a   1 e + a 2 e + a 3 e + a 4 e + a  

e|---------------------------------|---------------------------------| 
B|-7---7---0-------7---7---0-------|-7---7---0-------7---7---0-------| 
G|---------------------------------|---------------------------------| 
D|---------------------------------|---------------------------------| 
A|---------------------------------|---------------------------------| 
E|---------------------------------|---------------------------------| 
   1 e + a 2 e + a 3 e + a 4 e + a   1 e + a 2 e + a 3 e + a 4 e + a  

e|---------------------------------|---------------------------------| 
B|-2---2---0-------2---2---0-------|-2---2---0-------2---2---0-------| 
G|---------------------------------|---------------------------------| 
D|---------------------------------|---------------------------------| 
A|---------------------------------|---------------------------------| 
E|---------------------------------|---------------------------------| 
   1 e + a 2 e + a 3 e + a 4 e + a   1 e + a 2 e + a 3 e + a 4 e + a  

e|---------------------------------|---------------------------------| 
B|-2---2---0-------2---2---0-------|-5---5---0-------5---5---0-------| 
G|---------------------------------|---------------------------------| 
D|---------------------------------|---------------------------------| 
A|---------------------------------|---------------------------------| 
E|---------------------------------|---------------------------------| 
   1 e + a 2 e + a 3 e + a 4 e + a   1 e + a 2 e + a 3 e + a 4 e + a  

e|---------------------------------|---------------------------------| 
B|-7---7---0-------7---7---0-------|-7---7---0-------7---7---0-------| 
G|---------------------------------|---------------------------------| 
D|---------------------------------|---------------------------------| 
A|---------------------------------|---------------------------------| 
E|---------------------------------|---------------------------------| 
   1 e + a 2 e + a 3 e + a 4 e + a   1 e + a 2 e + a 3 e + a 4 e + a  

e|---------------------------------|---------------------------------| 
B|-7---7---0-------7---7---0-------|-7---7---0-------7---7---0-------| 
G|---------------------------------|---------------------------------| 
D|---------------------------------|---------------------------------| 
A|---------------------------------|---------------------------------| 
E|---------------------------------|---------------------------------| 
   1 e + a 2 e + a 3 e + a 4 e + a   1 e + a 2 e + a 3 e + a 4 e + a  

e|---------------------------------|---------------------------------| 
B|-2---2---0-------2---2---0-------|-2---2---0-------2---2---0-------| 
G|---------------------------------|---------------------------------| 
D|---------------------------------|---------------------------------| 
A|---------------------------------|---------------------------------| 
E|---------------------------------|---------------------------------| 
   1 e + a 2 e + a 3 e + a 4 e + a   1 e + a 2 e + a 3 e + a 4 e + a  

e|---------------------------------|---------------------------------| 
B|-2---2---0-------2---2---0-------|-5---5---0-------5---5---0-------| 
G|---------------------------------|---------------------------------| 
D|---------------------------------|---------------------------------| 
A|---------------------------------|---------------------------------| 
E|---------------------------------|---------------------------------| 
   1 e + a 2 e + a 3 e + a 4 e + a   1 e + a 2 e + a 3 e + a 4 e + a  




Outro 
----- 

e|------------------------------------------------|------------------------------------------------| 
B|------------------------------------------------|------------------------------------------------| 
G|------------------------------------------------|-11---------------------------------------------| 
D|-------------14----------------12---------------|-------------------11---------------------------| 
A|------------------------------------------------|-------------------------------------14----12---| 
E|------------------------------------------------|------------------------------------------------| 
   1  e  +  a  2  e  +  a  3  e  +  a  4  e  +  a   1  e  +  a  2  e  +  a  3  e  +  a  4  e  +  a 

e|------------------------------------------------|------------------------------------------------| 
B|------------------------------------------------|------------------------------------------------| 
G|------------------------------------------------|-11---------------------------------------------| 
D|-------------14----------------12---------------|-------------------11---------------------------| 
A|------------------------------------------------|-------------------------------------14----12---| 
E|------------------------------------------------|------------------------------------------------| 
   1  e  +  a  2  e  +  a  3  e  +  a  4  e  +  a   1  e  +  a  2  e  +  a  3  e  +  a  4  e  +  a 

e|------------------------------------------------|------------------------------------------------| 
B|------------------------------------------------|------------------------------------------------| 
G|------------------------------------------------|-11---------------------------------------------| 
D|-------------14----------------12---------------|-------------------11---------------------------| 
A|------------------------------------------------|-------------------------------------14----12---| 
E|------------------------------------------------|------------------------------------------------| 
   1  e  +  a  2  e  +  a  3  e  +  a  4  e  +  a   1  e  +  a  2  e  +  a  3  e  +  a  4  e  +  a 

e|------------------------------------------------|------------------------------------------------| 
B|------------------------------------------------|------------------------------------------------| 
G|------------------------------------------------|------------------------------------------------| 
D|-------------------11---------------------------|-------------------11----------14---------------| 
A|-------12----14----------------14----------12---|-------12----14----------------------------12---| 
E|------------------------------------------------|------------------------------------------------| 
   1  e  +  a  2  e  +  a  3  e  +  a  4  e  +  a   1  e  +  a  2  e  +  a  3  e  +  a  4  e  +  a 

e|------------------------------------------------| 
B|------------------------------------------------| 
G|------------------------------------------------| 
D|------------------------------------------------| 
A|-12---------------------------------------------| 
E|------------------------------------------------| 
   1  e  +  a  2  e  +  a  3  e  +  a  4  e  +  a   


************************************ 

| /   slide up 
| \   slide down 
| h   hammer-on 
| p   pull-off 
| ~   vibrato 
| +   harmonic 
| x   Mute note 
| b   Bend 
| pb  Pre-bend 
| br  Bend release 
| pbr Pre-bend release 
| brb Bend release bend 

************************************ 

Compartilhe esta música: novo

QR Code
Copiar