Loose Ends

Diiv

Intro: 
  Guitar 1               x2                          x2 
e|---------------------------|-----------------------------| 
B|---------------------------|-----------------------------| 
G|-77---99---11-11---12-12---|-16-16---14-14---9-9---7-7---| (repeats throughout 
D|----0----0-------0-------0-|-------0-------0-----0-----0-|  whole song) 
A|---------------------------|-----------------------------| 
E|---------------------------|-----------------------------| x3 
  Guitar 2 (00:11) 
e|----------|-----------------------------------------|--------------------------| 
B|-14141414-|-14141414--14141410-1010-----------------|--------------------------| 
G|----------|-------------------------11-11-11-9-9-11-|-66666-6\4-44-22----------| 
D|----------|-----------------------------------------|-----------------444-22-4-| 
A|----------|-----------------------------------------|--------------------------| 
E|----------|-----------------------------------------|--------------------------| 

e|------|-----------------------------------------|------------------------------| 
B|-1414-|-14141414--14141410-1010-----------------|------------------------------| 
G|------|-------------------------11-11-11-9-9-11-|-66666-6\4-44-22--------------| 
D|------|-----------------------------------------|-----------------444-22-4-0-4-| 
A|------|-----------------------------------------|------------------------------| 
E|------|-----------------------------------------|------------------------------| 

Verse: repeat guitar 1 of intro x2 

Pre-Chorus 
e|----9---9----9---9----7---7------------|----9---9----9---9----7---7------------| 
B|-------------------------------10---10-|-------------------------------10---10-| 
G|-77--777--77--777--77--777--77---777---|---------------------------------------| 
D|---------------------------------------|-99--999--99--999--99--999--99---999---| 
A|---------------------------------------|---------------------------------------| 
E|---------------------------------------|---------------------------------------| x2 

Chorus: 
e|-14-14---------------------------------------------------------------------| 
B|-------15-15-14-14-10-10---------------------------------------------------| 
G|-------------------------11-11-9-9-6-6-4-4-2-2-----------------------------| 
D|-----------------------------------------------4-4-2-2-0-0-----------------| 
A|-----------------------------------------------------------4-4-2-2-0-0-----| 
E|-----------------------------------------------------------------------3-3-| x2 

Bridge: (01:50 // this is the lead guitar) 
e|--------------------------------| 
B|--------------------------------| can't really hear it 
G|-77--77--77--77--77--77--77--77-| cuz it blends in with 
D|--------------------------------| everything :) 
A|--------------------------------| 
E|--------------------------------| x2 

Repeat Chorus x3 

OUTRO: 
e|----------|-----------------------------------------|--------------------------| 
B|-14141414-|-14141414--14141410-1010-----------------|--------------------------| 
G|----------|-------------------------11-11-11-9-9-11-|-66666-6\4-44-22----------| 
D|----------|-----------------------------------------|-----------------444-22-4-| 
A|----------|-----------------------------------------|--------------------------| 
E|----------|-----------------------------------------|--------------------------| 

e|------|-----------------------------------------|----------------------------2-| 
B|-1414-|-14141414--14141410-1010-----------------|----------------------------2-| 
G|------|-------------------------11-11-11-9-9-11-|-66666-6\4-44-22------------2-| 
D|------|-----------------------------------------|-----------------444-22-4-0-0-| 
A|------|-----------------------------------------|------------------------------| 
E|------|-----------------------------------------|------------------------------| 

End. Please rate! :D 

Compartilhe esta música: novo

QR Code
Copiar