Follow

Diiv

INTRO: 
            (x3)                     (x1) 
e|-------------------------|-------------------------| 
B|----88-------------------|----88-------------------| 
G|-55----555------00----00-|-55----555------99999999-| 
D|-------------------------|-------------------------| 
A|------------5/7----55----|------------5/7----------| 
E|-------------------------|-------------------------| 

RIFF A: 
e|-------------------------------------10-|-------------------12-12----10----| 
B|----10-------10-------10-------13-13----|----10-------10----------13----13-| 
G|-12----12-------12-------12-------------|-12----12-------12----------------| 
D|----------10-------10-------10----------|----------10----------------------| (x2) 
A|----------------------------------------|----------------------------------| 
E|----------------------------------------|----------------------------------| 

RIFF B: 
e|-----------------------------------------|----------------------------------------| 
B|-----------------------------------------|----------------------------------------| 
G|-----------------------------2---2---2---|----------------------------2---2---2---| 
D|-------------------2-222222----5---5---5-|-----------------2------------5---5---5-| 
A|-3-333333-5-555555-----------------------|-3-333333-5-5555---3-333333-------------| 
E|-----------------------------------------|----------------------------------------| 

RIFF C: 
                                     (1st ending)     (2nd ending) 
e|---------------------------------|---------------|-----------------| 
B|---------------------------------|----8---8------|----10---10-8----| 
G|---------------------------------|-9----9---9--7-|-9-----9-------9-| 
D|-7777-7777-9-9999-5-10--10-10-10-|---------------|-----------------| (x2) 
A|---------------------------------|---------------|-----------------| 
E|---------------------------------|---------------|-----------------| 

PRE-VERSE: 
e|-------------------------| 
B|-------------------------| 
G|----------------00----00-| 
D|-5/7-77777---------------| 
A|------------5/7----55----| 
E|-------------------------| 

Repeat RIFF  B  (verse begins) 

RIFF  C  VARIATION: 
                                     (1st ending)    (2nd ending) 
e|---------------------------------|---------------|-------------| 
B|---------------------------------|----8---8------|-------------| 
G|---------------------------------|-9----9---9----|----00----00-| 
D|-7777-7777-9-9999-5-10--10-10-10-|---------------|-------------| (x2) 
A|---------------------------------|---------------|-77----55----| 
E|---------------------------------|---------------|-------------| 

Repeat RIFF  A  

BRIDGE: 
e|------------------------------------------|------------------------------------------| 
B|-------------------88-10\5-5--------------|------------------------------------------| 
G|-7777-7777-9999-99-------------99999-7777-|-9999-9999-7777-9\7-7-5\2-2--2222-2/7-777-| 
D|------------------------------------------|------------------------------------------| 
A|------------------------------------------|------------------------------------------| 
E|------------------------------------------|------------------------------------------| 

RIFF  B  VARIATION: 
e|-----------------------------------------|----------------------------------------| 
B|-----------------------------------------|----------------------------3---3---3---| 
G|-----------------------------2---2---2---|------------------------------5---5---5-| 
D|-------------------2-222222----5---5---5-|-----------------2----------------------| 
A|-3-333333-5-555555-----------------------|-3-333333-5-5555---3-333333-------------| 
E|-----------------------------------------|----------------------------------------| 

Repeat RIFF  A  
Repeat RIFF  C  
Repeat PRE-VERSE 

END NOTE: 
e|---------| 
B|---------| 
G|-5-------| 
D|---------| 
A|---------| 
E|---------| 

Compartilhe esta música: novo

QR Code
Copiar