Bent Rois Song

Diiv

Tom: B
Intro: 
e|-----------------------------| 
B|------0-------0-----0------0-| 
G|-9h11----11b----11----11b----| 
D|-------------9-----9------9--| 
A|-----------------------------| 
E|-----------------------------| x8 

Chorus: (intro plays in background) 
e|---------------10--12/14--------| 
B|------------12------------------| 
G|-9/11-11-11---------------14-14-| 
D|--------------------------------| 
A|--------------------------------| 
E|--------------------------------| x8 

Verse: (guitar feedback) 

Repeat Chorus 

Verse: (guitar feedback) 

BRIDGE A: x2 
e|-------------------------------------|--------------------------| 
B|-------------------------------------|--------------------------| 
G|-11------------------11--------------|----------12-----------12-| 
D|-----14-12-----12-14-----14-12----12-|-11-11-12-----11-11-12----| 
A|-----------14------------------14----|--------------------------| 
E|-------------------------------------|--------------------------| 

e|-------------------------------------|-----------------------------| 
B|-------------------------------------|-----------------------------| 
G|-11------------------11--------------|----------12--------12/14----| 
D|-----14-12-----12-14-----14-12----12-|-11-11-12-----11-12-------14-| 
A|-----------14------------------14----|-----------------------------| 
E|-------------------------------------|-----------------------------| 

BRIDGE B: (bridge A repeats on the 2nd half of bridge B) 
e|-------------------------------|---------------------------| 
B|-------------------------------|---------------------------| 
G|-11-11-11-11\9/11--11--11\9/11-|-11--7\5/7--7\5/7--7-7\5/7-| 
D|-------------------------------|---------------------------| 
A|-------------------------------|---------------------------| 
E|-------------------------------|---------------------------| x1 

e|------------------------------|---------------------------| 
B|------------------------------|---------------------------| 
G|-7-11-11-11\9/11--11--11\9/11-|-11--7\5/7--7\5/7--7-7\5/7-| 
D|------------------------------|---------------------------| 
A|------------------------------|---------------------------| 
E|------------------------------|---------------------------| x7 

Repeat Chorus 

END NOTE: 
e|---------| 
B|---------| 
G|-11------| 
D|---------| 
A|---------| 
E|---------| 

End. Please rate! :D 

Compartilhe esta música: novo

QR Code
Copiar