Dance In The Fire

Digital Summer

Tom: A#
 


                      (Intro/Chorus) 
C-------------------------------------------------------------| 
G-------------------------------------------------------------| 
D#------------------------------------------------------------| 
A#---5-5-5-5---5--5s7-7-7-7--7s9--9-9-9-----------------------| 
F----5-5-5-5---5--5s7-7-7-7--7s9--9-9-9-----------------------| 
A#---5-5-5-5---5--5s7-7-7-7--7s9--9-9-9-999999999999----------| 
                                        ************ 

C-------------------------------------------------------------| 
G-------------------------------------------------------------| 
D#------------------------------------------------------------| 
A#---5-5-5-5---5--5s7-7-7-7--7--------------------------------| 
F----5-5-5-5---5--5s7-7-7-7--7--------------------------------| 
A#---5-5-5-5---5--5s7-7-7-7--7--99999999999999999-------------| 
                                ***************** 

                          (Verse) 
C-------------------------------------------------------------| X2 
G-------------------------------------------------------------| 
D#------------------------------------------------------------| 
A#---9*9*9*9*-7h9-----9*9*9*9*-7h9---5-5-5-7-7-7--------------| 
F----9*9*9*9*-7h9-----9*9*9*9*-7h9---5-5-5-7-7-7--------------| 
A#---9*9*9*9*-7h9-----9*9*9*9*-7h9---5-5-5-7-7-7--------------| 


                        (Pre-Chorus) 
 'on second time, just play an open on the 7th fret instead of palm mutes' 
C-------------------------------------------------------------| X2 
G-------------------------------------------------------------| 
D#------------------------------------------------------------| 
A#--2-2-2-2---2-2-2-2---5-5-5-5---7-7-7-7---------------------| 
F---2-2-2-2---2-2-2-2---5-5-5-5---7-7-7-7---------------------| 
A#--2-2-2-2---2-2-2-2---5-5-5-5---7-7-7-7---------------------| 
    * * * *   * * * *   * * * *   * * * * 


                         (Chorus)   X2 
C-------------------------------------------------------------| 
G-------------------------------------------------------------| 
D#------------------------------------------------------------| 
A#---5-5-5-5---5--5s7-7-7-7--7s9--9-9-9-----------------------| 
F----5-5-5-5---5--5s7-7-7-7--7s9--9-9-9-----------------------| 
A#---5-5-5-5---5--5s7-7-7-7--7s9--9-9-9-999999999999----------| 
                                        ************ 

C-------------------------------------------------------------| 
G-------------------------------------------------------------| 
D#------------------------------------------------------------| 
A#---5-5-5-5---5--5s7-7-7-7--7s9--9-9-9-----------------------| 
F----5-5-5-5---5--5s7-7-7-7--7s9--9-9-9-----------------------| 
A#---5-5-5-5---5--5s7-7-7-7--7s9--9-9-9-999999999999----------| 
                                        ************ 

C-------------------------------------------------------------| 
G-------------------------------------------------------------| 
D#------------------------------------------------------------| 
A#---5-5-5-5---5--5s7-7-7-7--7--------------------------------| 
F----5-5-5-5---5--5s7-7-7-7--7--------------------------------| 
A#---5-5-5-5---5--5s7-7-7-7--7--99999999999999999-------------| 
                                ***************** 
(PLAY VERSE, Pre-Chorus, AND Chorus ALL THROUGH AGAIN) 


                        (Bridge) 
C-------------------------------------------------------------| X2 
G-------------------------------------------------------------| 
D#------------------------------------------------------------| 
A#--0---0-0-0---0-0-2---2-2-2---2-2-2-------------------------| 
F---0---0-0-0---0-0-2---2-2-2---2-2-2-------------------------| 
A#--0---0-0-0---0-0-2---2-2-2---2-2-2--7h99999 7h9999 7h9999--| 


C-------------------------------------------------------------| 
G-------------------------------------------------------------| 
D#------------------------------------------------------------| 
A#--5-5-5-5-5-5-5-5--7-7-7-7-7-7-7-7-7-7----5-----------------| 
F---5-5-5-5-5-5-5-5--7-7-7-7-7-7-7-7-7-7----5-----------------| 
A#--5-5-5-5-5-5-5-5--7-7-7-7-7-7-7-7-7-7----5-----------------| 

 

Compartilhe esta música: novo

QR Code
Copiar