Na Terra Seca

Diante do Trono

Tom: A
Bom Pessoal aih vai uns solinhos de varios instrumentos nesta musica, feitos na guitarra ok 

Artista: Diante do Trono 
Musica: Na terra Seca 



Trumpete 0:16 e 1:55 

E|--------------------------------------------------| 
B|--------------------------------------------------| 
G|--------------------------------------------------| 
D|--7-7-7-9--7-6-7-------7-7-7-9--7-6-7-------------| 2x 
A|--------------------------------------------------| 
E|--------------------------------------------------| 



Guitarra e Baixo 4:30 

E|--------------------------------------------------| 
B|--------------------------------------------------| 
G|--------------------------------------------------| 
D|--7--4-2--5-5h4--0-2--4-2--7--4-5----0-2-4-5--7---| 2x 
A|-----------------------------------4--------------| 
E|--------------------------------------------------| 

Trumpetes 4:44 

E|--------------------------------------------------| 
B|--------------------------------------------------| 
G|--------------------------------------------------| 
D|--7--4-2--5-5h4--0-2--4-2--7--4-5----0-2-4-5--7---| 
A|-----------------------------------4--------------| 
E|--------------------------------------------------| 

E|-------------------------------------------------------| 
B|-------------------------------------------------------| 
G|----------------------------------------------8-10-11--| 
D|--7--4-2--5-5h4--0-2--4-2--7--4-5---5-7-9-11-----------| 
A|-------------------------------------------------------| 
E|-------------------------------------------------------| 


[email protected] 

Compartilhe esta música: novo

QR Code
Copiar