Cannonball

Diamond Youth

Tom: B
Rhythm 

Main progression (verse and Chorus) 

|-10-10-10-x-x-10-10-10/11-11-11-x-x-x-6-6-x-----------------| 
|-11-11-11-x-x-10-10-10/11-11-11-x-x-x-6-6-x-----------------| 
|-12-12-12-x-x-11-11-11/12-12-12-x-x-x-7-7-x-----------------| 
|-12-12-12-x-x-12-12-12/13-13-13-x-x-x-8-8-x-----------------| x4 
|-10-12-10-x-x-12-12-12/13-13-13-x-x-x-8-8-x-----------------| 
|----------x-x-10-10-10/11-11-11-x-x-x-6-6-x-----------------| 

Bridge- Played after most Chorus sections. These are difficult to hear.   
These might be off, and might just be power chords 

|-33333333-44444444-22222222-44444444------------------------| 
|-33333333-44444444-22222222-44444444------------------------| 
|-44444444-55555555-33333333-55555555------------------------| 
|-55555555-66666666-44444444-66666666------------------------| 
|-55555555-66666666-44444444-66666666------------------------| 
|-33333333-44444444-22222222-44444444------------------------| 

Breakdown 

|------------------------------------------------------------| 
|------------------------------------------------------------| 
|------------------------------------------------------------| 
|-5-5-5-x-4454--5-55-5x-888----------------------------------| 
|-5-5-5-x-4454--5-55-5x-888----------------------------------| 
|-3-3-3-x-2232--3-33-3x-666----------------------------------| 



Lead guitar 

Intro/Riff: 
|------------------------------------------------------------| 
|------------------------------------------------------------| 
|/11h12------------------------------------------------------| 
|-------11h12------------------------------------------------| 
|-------------12h13-----------12b13-12-----------------------| 
|-------------------14-/15-15--------------------------------| 

|------------------------------------------------------------| 
|------------------------------------------------------------| 
|-11h12------------------------------------------------------| 
|-------11h12------------------------------------------------| 
|-------------12h13------------------------------------------| 
|-------------------14--11-10b11r10--(10)--------------------| 


verse 1 - lead remains silent until the last chord 

|------------------------------------------------------------| 
|------------------------------------------------------------| 
|------------------------------------------------------------| 
|-888--------------------------------------------------------| 
|-888--------------------------------------------------------| 
|-666--------------------------------------------------------| 


verse 2 - lead and rhythm both play main progression 

|-10-10-10-x-x-10-10-10/11-11-11-x-x-x-6-6-x-----------------| 
|-11-11-11-x-x-10-10-10/11-11-11-x-x-x-6-6-x-----------------| 
|-12-12-12-x-x-11-11-11/12-12-12-x-x-x-7-7-x-----------------| 
|-12-12-12-x-x-12-12-12/13-13-13-x-x-x-8-8-x-----------------| x4 
|-10-12-10-x-x-12-12-12/13-13-13-x-x-x-8-8-x-----------------| 
|----------x-x-10-10-10/11-11-11-x-x-x-6-6-x-----------------| 


Chorus: 
 

|------------------------------------------------------------| 
|------------------------------------------------------------| 
|-14b15-14--12-14-12-10----10b11-----------------------------| 
|-----------------------12-------(12)------------------------| 
|------------------------------------------------------------| 
|------------------------------------------------------------| 

|------------------------------------------------------------| 
|------------------------------------------------------------| 
|-14b15-14--12-14-15-17--------------------------------------| 
|------------------------------------------------------------| 
|------------------------------------------------------------| 
|------------------------------------------------------------| 


 

|------------------------------------------------------------| 
|------------------------------------------------------------| 
|-14b15-14--12-14-12-----------------------------------------| 
|--------------------15-12-15b16-(12)------------------------| 
|------------------------------------------------------------| 
|------------------------------------------------------------| 

|------------------------------------------------------------| 
|--------------------13--------------------------------------| 
|-14b15-14--12-14-15-----------------------------------------| 
|------------------------------------------------------------| 
|------------------------------------------------------------| 
|------------------------------------------------------------| 


rest one bar or play rhythm, then 

|------------------------------------------------------------| 
|------------------------------------------------------------| 
|-14b15-14--12-14-12-15--------------------------------------| 
|------------------------------------------------------------| 
|------------------------------------------------------------| 
|------------------------------------------------------------| 


Bridge: 
 
|---------------5--------------------------------------------| 
|------------------------------------------------------------| 
|-11~9-11-12~-6---5------------------------------------------| 
|------------------------------------------------------------| 
|------------------------------------------------------------| 
|------------------------------------------------------------| 

 
|------------------------------------------------------------| 
|---------------10-------------------------------------------| 
|-11~9-11-12~------------------------------------------------| 
|-------------11--10-----------------------------------------| 
|------------------------------------------------------------| 
|------------------------------------------------------------| 


Intro/riff 

Then end on (as verse starts) 
|-10---------------------------------------------------------| 
|-11---------------------------------------------------------| 
|-12-----------------------------------------------| 
|-12---------------------------------------------------------| 
|-10---------------------------------------------------------| 
|------------------------------------------------------------| 

Silent for two bars 

During last bar of verse 3 
|------------------------------------------------------------| 
|------------------------------------------------------------| 
|------------------------------------------------------------| 
|------------------------------------------------------------| 
|-1-1-1/7--3/1-3-3/1-3-3/5-5/6-5-5/10~-----------------------| 
|------------------------------------------------------------| 

Chorus 
Bridge 

Breakdown 

Pickup 
|------------------------------------------------------------| 
|--15~-------------------15~---------------------------------| 
|--------------------15~---------------------------------| 
|------------------------------------------------------------| 
|------------------------------------------------------------| 
|-------15/--------------------15/---------------------------| 

Rest one measure 

|------------------------------------------------------------| 
|---6-8------------------------------------------------------| 
|-7-----7b8-6h7----------------------------------------------| x2 
|------------------------------------------------------------| 
|------------------------------------------------------------| 
|------------------------------------------------------------| 


|------------------------------------------------------------| 
|-/11b-------------------------------------------------------| 
|------------------------------------------------------------| 
|------------------------------------------------------------| 
|------------------------------------------------------------| 
|------------------------------------------------------------| 


Half-bridge (This is the best way I can think of to describe it) 

|------------------------------------------------------------| 
|------------------------------------------------------------| 
|-11~9-11-12~------------------------------------------------| 
|------------------------------------------------------------| 
|------------------------------------------------------------| 
|------------------------------------------------------------| 


One bar of the main chord progression (rest or play rhythm) 

Chorus 
Chorus again, but rhythm guitar kicks on distortion pedal and strums all  
chords instead of muting as lead plays 

|------------------------------------------------------------| 
|------------------------------------------------------------| 
|-14b15-14--12-14-12-15--------------------------------------| 
|------------------------------------------------------------| 
|------------------------------------------------------------| 
|------------------------------------------------------------| 

And then  
 
|------------------------------------------------------------| 
|------------------------------------------------------------| 
|-14b15-14--12-10-8-7----------------------------------------| 
|------------------------------------------------------------| 
|------------------------------------------------------------| 
|------------------------------------------------------------| 

 
|------------------------------------------------------------| 
|------------------------------------------------------------| 
|-14b15-14--12-----------------------------------------------| 
|--------------15-13-12--------------------------------------| 
|------------------------------------------------------------| 
|------------------------------------------------------------| 

Breakdown (end)  

Compartilhe esta música: novo

QR Code
Copiar