Wont You Come Home

Devendra Banhart

bass line: 
G|----0-0-00-------------0-0-00----------------------------------------------| 
D|--------------0-0-0-------------0-0-0--------------------------------------| 
A|---------------------------------------------------------------------------| 
E|---------------------------------------------------------------------------| 

riff played throughout: 
e|---------------------------------------------------------------------------| 
B|---------------------------------------------------------------------------| 
G|----10/12-12-12-12-10-9-7~----6-7-7/9-0~-----------------------------------| 
D|---------------------------------------------------------------------------| 
A|---------------------------------------------------------------------------| 
E|---------------------------------------------------------------------------| 

sliding parts (theres fills I cant quite get): 
e|---------------------------------------------------------------------------| 
B|---------------------------------------------------------------------------| 
G|----5/7\5/7\5----5/7\5/7\5----5/7\5/7\5----5/7\5/7\5-----------------------| 
D|---------------------------------------------------------------------------| 
A|---------------------------------------------------------------------------| 
E|---------------------------------------------------------------------------| 

e|---------------------------------------------------------------------------| 
B|---------------------------------------------------------------------------| 
G|----7\5/7\5/7----7\5/7\5/7----7\5/7\5/7----7\5/7\5/7-----------------------| 
D|---------------------------------------------------------------------------| 
A|---------------------------------------------------------------------------| 
E|---------------------------------------------------------------------------| 

e|---------------------------------------------------------------------------| 
B|---------------------------------------------------------------------------| 
G|----5/7\5/7\5----5/7\5/7\5----7\5/7\5/7----7\5/7\5/7-----------------------| 
D|---------------------------------------------------------------------------| 
A|---------------------------------------------------------------------------| 
E|---------------------------------------------------------------------------| 

e|---------------------------------------------------------------------------| 
B|----12\10/12\10/12----12\10/12\10/12-----13\10/13\10/13----13\10/13\10/13--| 
G|---------------------------------------------------------------------------| 
D|---------------------------------------------------------------------------| 
A|---------------------------------------------------------------------------| 
E|---------------------------------------------------------------------------| 

************************************ 

| /   slide up 
| \   slide down 
| h   hammer-on 
| p   pull-off 
| ~   vibrato 
| +   harmonic 
| x   Mute note 
| b   Bend 
| pb  Pre-bend 
| br  Bend release 
| pbr Pre-bend release 
| brb Bend release bend 

*********************************** 

Compartilhe esta música: novo

QR Code
Copiar