Play this the whole song 
|----------------------------------------------| 
|----------------------------------------------| 
|---9---9---9---9---9----9---9---9---9---9-----| 
|---10--10--10--10--10---10--10--10--10--10----| 
|-8--------8---8--------8-------8---8----------| 
|----------------------------------------------| 


|-------------------------------------------| 
|-------------------------------------------| 
|---7---7---7---7---7---7---7---7---7---7---| 
|---9---9---9---9---9---9---9---9---9---9---| 
|---------7-------------------7-------------| 
|-7-----------7--------7----------7---------| 

Intro 

|-12\10--8\5----12\10--8\5--3/5--10----12---| 
|-------------------------------------------| 
|-------------------------------------------| 
|-------------------------------------------| 
|-------------------------------------------| 
|-------------------------------------------| 

|-12\10--8\5----12\10--8\5--3/5---| 
|---------------------------------| 
|---------------------------------| 
|---------------------------------| 
|---------------------------------| 
|---------------------------------| 



|-----------------------------------------------------| 
|-----------------------------------------------------| 
|-9999-7-5\2--22-55/77-4-----9999-7-5\2--22-55/77-4---| 
|-----------------------------------------------------| 
|-----------------------------------------------------| 
|-----------------------------------------------------| 


 

Compartilhe esta música: novo

QR Code
Copiar