Carolina

Devendra Banhart

Intro 

e|2-----0---------7-----5---------| 
B|--0-------0-------5-------5-----| 
G|----0---------0-----5---------5-| 
D|0-------0---0---5-------5---5---| 
A|--------------------------------| 
E|--------------------------------| 
x2 

e|2-----0---------7-----5---------| 
B|--0-------0-------5-------5-----| 
G|------0-------0-------5-------5-| 
D|0---0---0---0---5---5---5---5---| 
A|--------------------------------| 
E|--------------------------------| 
x2 


verse 1 

  Ca-   ro        li-   na 
e|2-----0---------7-----5---------| 
B|--0-------0-------5-------5-----| 
G|----0---------0-----5---------5-| 
D|0-------0---0---5-------5---5---| 
A|--------------------------------| 
E|--------------------------------| 
  Ca-   ro .  Caroli-   na 
e|2-----0-----0h2/7-----5---------| 
B|--0-------0-------5-------5-----| 
G|----0---------------5---------5-| 
D|0-------0---0-0/5-------5---5---| 
A|--------------------------------| 
E|--------------------------------| 

  Ca-ro ca-ro caroli-   na 
e|2--0--2--0--0h2/7-----5---------| 
B|------------------5-------5-----| 
G|--------------------5---------5-| 
D|0--0--0--0--0-0/5-------5---5---| 
A|--------------------------------| 
E|--------------------------------| 

  Ca-   ro        li-   na    eu que- 
e|2-----0---------7-----5---------| 
B|--0-------0-------5-------5-----| 
G|----0---------0-----5---------5-| 
D|0-------0---0---5-------5---5---| 
A|--------------------------------| 
E|--------------------------------| 

Chorus 1 

  ri a cantar Caro- 
e|7--5--7-5---7---| 
B|5--5--5-5---5---| 
G|5--5--5-5---5---| 
D|5--5--5-5---5---| 
A|----------------| 
E|----------------| 

  li              na          Caro- 
e|--------------------------------| 
B|--3---3---3---3---3---3---3---3-| 
G|--4---4---4---4---4---4---4---4-| 
D|--4---4---4---4---4---4---4---4-| 
A|--------------------------------| 
E|3---3---3---3---3---3---3---3---| 

  li              na          mas ela 
e|--------------------------------| 
B|--3---3---3---3---3---3---3---3-| 
G|--4---4---4---4---4---4---4---4-| 
D|--4---4---4---4---4---4---4---4-| 
A|--------------------------------| 
E|3---3---3---3---3---3---3---3---| 

  e  uma  ave de ra- 
e|7--5--7-5-------| 
B|5--5--5-5-------| 
G|5--5--5-5-------| 
D|5--5--5-5-------| 
A|----------------| 
E|----------------| 

  pi              na          bougain- 
e|--------------------------------| 
B|--3---3---3---3---3---3---3---3-| 
G|--4---4---4---4---4---4---4---4-| 
D|--4---4---4---4---4---4---4---4-| 
A|--------------------------------| 
E|3---3---3---3---3---3---3---3---| 

  vi              llea           
e|--------------------------------| 
B|--3---3---3---3---3---3---3---3-| 
G|--4---4---4---4---4---4---4---4-| 
D|--4---4---4---4---4---4---4---4-| 
A|--------------------------------| 
E|3---3---3---3---3---3---3---3---| 

Post-Chorus 

e|7--5--7-5---7-5-| 
B|5--5--5-5---5---| 
G|5--5--5-5---5---| 
D|5--5--5-5---5---| 
A|----------------| 
E|----------------| 

          Tal     vez         
e|--------------------------------| 
B|--8---8---8---8---10--10--10--10| 
G|--7---7---7---7---9---9---9---9-| 
D|--9---9---9---9---10--10--10--10| 
A|7---7---7---7---9---9---9---9---| 
E|--------------------------------| 

e|7--5--7-5---7-5-| 
B|5--5--5-5---5---| 
G|5--5--5-5---5---| 
D|5--5--5-5---5---| 
A|----------------| 
E|----------------| 

          Tal     vez 
e|--------------------------------| 
B|--8---8---8---8---10--10--10--10| 
G|--7---7---7---7---9---9---9---9-| 
D|--9---9---9---9---10--10--10--10| 
A|7---7---7---7---9---9---9---9---| 
E|--------------------------------| 

           eu   deve      ria 
e|--------------------------------| 
B|--5---5---5---5---5---5---4---4-| 
G|--5---5---5---5---5---5---4---4-| 
D|--5---5---5---5---4---4---4---4-| 
A|----------------5---5---5---5---| 
E|5---5---5---5-------------------| 

Bridge 

      sem voce musica     repulsiva 
e|--------------------------------| 
B|--3---3---3---3---4---4---4---4-| 
G|--4---4---4---4---4---4---4---4-| 
D|--5---5---5---4---4---4---4---4-| 
A|----------------2---2---2---2---| 
E|3---3---3---3-------------------| 

                  preenche o espa- 
e|----------------5--5--5-5---7---| 
B|--5---5---5-----5--5--5-5---5---| 
G|--4---4---4-----5--5--5-5---5---| 
D|--5---5---5-----5--5--5-5---5---| 
A|3---3---3---3-------------------| 
E|--------------------------------| 
  
-co             Carolina    tanto amor 
e|--------------------------------| 
B|--8---8---8---8---7---7---7---7-| 
G|--9---9---9---9---7---7---7---7-| 
D|--9---9---9---9---7---7---7---7-| 
A|--------------------------------| 
E|8---8---8---8---7---7---7---7---| 
            tao sacorina   ayu- 
e|--------------------------------| 
B|--8---8---8---8---7---7---7---7-| 
G|--9---9---9---9---7---7---7---7-| 
D|--9---9---9---9---7---7---7---7-| 
A|--------------------------------| 
E|8---8---8---8---7---7---7---7---| 

 -da 
e|------5-------5-------5-------5-| 
B|--5---5---5---5---5---5---5---5-| 
G|--5---5---5---5---5---5---5---5-| 
D|--5---5---5---5---5---5---5---5-| 
A|--------------------------------| 
E|5---5---5---5---5---5---5---5---| 

verse 2 

Ca-   ro        li-   na 
e|2-----0---------7-----5---------| 
B|--0-------0-------5-------5-----| 
G|----0---------0-----5---------5-| 
D|0-------0---0---5-------5---5---| 
A|--------------------------------| 
E|--------------------------------| 
  Ca-   ro .  Caroli-   na 
e|2-----0-----0h2/7-----5---------| 
B|--0-------0-------5-------5-----| 
G|----0---------------5---------5-| 
D|0-------0---0-0/5-------5---5---| 
A|--------------------------------| 
E|--------------------------------| 

  Ca-ro ca-ro caroli-   na 
e|2--0--2--0--0h2/7-----5---------| 
B|------------------5-------5-----| 
G|--------------------5---------5-| 
D|0--0--0--0--0-0/5-------5---5---| 
A|--------------------------------| 
E|--------------------------------| 

  E-    la  e minha amrita    eu que-   
e|2-----0---------7-----5---------| 
B|--0-------0-------5-------5-----| 
G|----0---------0-----5---------5-| 
D|0-------0---0---5-------5---5---| 
A|--------------------------------| 
E|--------------------------------| 

Chorus 2 

  ria ajoelhar a seus 
e|7--5--7-5---7---| 
B|5--5--5-5---5---| 
G|5--5--5-5---5---| 
D|5--5--5-5---5---| 
A|----------------| 
E|----------------| 

  pena                     Caro- 
e|--------------------------------| 
B|--3---3---3---3---3---3---3---3-| 
G|--4---4---4---4---4---4---4---4-| 
D|--4---4---4---4---4---4---4---4-| 
A|--------------------------------| 
E|3---3---3---3---3---3---3---3---| 

  li              na          eu deve- 
e|--------------------------------| 
B|--3---3---3---3---3---3---3---3-| 
G|--4---4---4---4---4---4---4---4-| 
D|--4---4---4---4---4---4---4---4-| 
A|--------------------------------| 
E|3---3---3---3---3---3---3---3---| 

  ria aprended portu-   
e|7--5--7-5-------| 
B|5--5--5-5-------| 
G|5--5--5-5-------| 
D|5--5--5-5-------| 
A|----------------| 
E|----------------| 

  -guese                     algum 
e|--------------------------------| 
B|--3---3---3---3---3---3---3---3-| 
G|--4---4---4---4---4---4---4---4-| 
D|--4---4---4---4---4---4---4---4-| 
A|--------------------------------| 
E|3---3---3---3---3---3---3---3---| 

  di              a           
e|--------------------------------| 
B|--3---3---3---3---3---3---3---3-| 
G|--4---4---4---4---4---4---4---4-| 
D|--4---4---4---4---4---4---4---4-| 
A|--------------------------------| 
E|3---3---3---3---3---3---3---3---| 


e|----------------| 
B|3---------------| 
G|4---------------| 
D|4---------------| 
A|----------------| 
E|3---------------| 


************************************ 

| x   Dead note 
| h   Hammer-on 
| /   Slide up 

************************************ 

Compartilhe esta música: novo

QR Code
Copiar