Desesperado

Defasage

Tom: A
( INTRO ) 
base: A - E - B - D / C# / B / A 
Oitavada: A / G# / F# / E - A / G# / F# / E - A / G# / F# / E - E / D / C# / B / A 
 
Durante o verso enquanto a 1ª guitarra faz 1 batida por nota, a 2ª guitarra faz: 
 
         e|---------------------------------------------------------------------------------------------------- 
         B|---------------------------------------------------------------------------------------------------- 
RIFF-1   G|---------------------------------------------------------------------------------------------------- 
         D|--------------------------------------77--66---------------77--66----------------------------------- 
         A|------------------------7--5--77----------------99--77---------------99--77--55--------------------- 
         E|------55--99--77-----------------------------------------------------------------------99--77--55--- 
 
 
(RIFF-1)  
 
A - E - B - D 
Quando perdi o meu amor fiquei desesperado 
Fui logo procurando uma solução 
Fiquei sozinho pensando errado 
vivendo pressionado pela emoção 
 
A - E - B - D 
Conheço o poder do amor 
E ele pode transformar minha vida 
Eu sei sem ele é muita dor 
A gente sempre encontra uma saída 
 
(INTRO) 
 
(RIFF-1)  
 
A - E - B - D 
Lembra do tempo que passamos, e os momento emoção 
Pare, pense e lembre como era bom! 
Eu sei que é difícil alguém assim como eu 
Pensando melhor o erro foi seu não foi meu! 
 
A - E - B - D 
Conheço o poder do amor 
E ele pode transformar minha vida 
Eu sei sem ele é muita dor 
A gente sempre encontra uma saída 
 
 e|-------------------------------------------------------5-4h5p4--------------------------------- 
 B|---------------3-2-2-3-------------3-2-2-3--55555-------------5--------------------------------- 
 G|----22222--------------44444-------------------------------------44444--2-1-1--4-2-------------- 
 D|----------------------------------------------------------------------------------------------- 
 A|----------------------------------------------------------------------------------------------- 
 E|------------------------------------------------------------------------------------------------ 
 
 e: -----------------------------------------------------------5-4-5-5/7-5-4---------------------- 
 B|---------------3-2-2-3-------------3-2-2-3--55555------------------------5---------------------- 
 G|----22222--------------44444---------------------------------------------------4-1-1h2---------- 
 D|----------------------------------------------------------------------------------------------- 
 A|----------------------------------------------------------------------------------------------- 
 E|------------------------------------------------------------------------------------------------ 
 
A - E - B - D 
A vida é um labirinto, basta você desvendar 
Mesmo indeciso tente enfrentar 
Eu sei que é dificil os problemas acabar 
Pense no melhor, você vai superar..... 
 
e: ---------------------------------------------------------------------17----------16-14------------------------------------------------ 
B|---17b--------------------------------------------------------------14------------------17-15-14--------------------------------------- 
G|---16b--16------------14-----14-16----------14------14-14----14------------------------------16-14-------------------14----14-16b-14--- 
D|----------------14h16-----16---------14h16------16------------14(sweep)_----------------------------16-14-14h16------16---------------- 
A|--------------------------------------------------------------------------------------------------------------------------------------- 
E|---------------------------------------------------------------------------------------------------------------------------------------- 
 
h= hammer on 
p= pull of 
b= bend (full) 

Compartilhe esta música: novo

QR Code
Copiar