Brought To The Water

Deafheaven

Tom: D
    d|-7----7----7----7----6----6----6----6----| 
    A|-8----8----8----8----7----7----7----7----| 
GTR F|-9----9----9----9----8----8----8----8----| 
 1  C|-9----9----9----9----8----8----8----8----| x4 
    G|-7----7----7----7----6----6----6----6----| 
    D|-7----7----7----7------------------------| 

    d|-7---7---7---7-------------------| 
    A|-8---8---8---8-------------------| 
GTR F|-9---9---9---9-------------------| 
 2  C|-9---9---9---9-------------------| x4 
    G|-7---7---7---7---6---6---6---6---| 
    D|-7---7---7---7---5---5---5---5---| 

    d|-7----------------------------------------------------------------------------------| 
    A|-8----------------------------------------------------------------------------------| 
GTR F|-9--------------------------7-----5-----5-5-5-5-------------------------------------| 
 1  C|-9--------------------------------------5-5-5-5-------------------------------------| x1 
    G|-7--------------------------7-----7-----7-7-7-7-------------------------------------| 
    D|----00-00-00-00-00-00-00-00---0-0---0-0---------00-00-00-00-00-00-00-00-3-0-0-3-0-0-| 
          PM PM PM PM PM PM PM PM   P M   P M         PM PM PM PM PM PM PM PM   P M   P M 

    d|-7----------------------------------------------------------------------------------| 
    A|-8----------------------------------------------------------------------------------| 
GTR F|-9--------------------------7-----5-----5-5-5-5-------------------------------------| 
1+2 C|-9--------------------------------------5-5-5-5-------------------------------------| x2 
    G|-7--------------------------7-----7-----7-7-7-7-------------------------------------| 
    D|----00-00-00-00-00-00-00-00---0-0---0-0---------00-00-00-00-00-00-00-00-3-0-0-3-0-0-| 
          PM PM PM PM PM PM PM PM   P M   P M         PM PM PM PM PM PM PM PM   P M   P M 

    d|-------------------------------------------------------------------------------------------| 
    A|-------------------------------------------------------------------------------------------| 
GTR F|-1212121212121212121212121212121212121212-11111111-99999999-8888888888888888-9999-11111111-| 
 1  C|-------------------------------------------------------------------------------------------| 
    G|-------------------------------------------------------------------------------------------| 
    D|-------------------------------------------------------------------------------------------| 

Play each note the same amount of times as guitar one, I just put less notes in for space issues. 

    d|-------------------------------------------------------------------------------------------| 
    A|-------------------------------------------------------------------------------------------| 
GTR F|-------------------------------------------------------------------------------------------| 
 2  C|-1414141414141414141414141414141414141414-13131313-11111111-1010101010101010-1111-13131313-| 
    G|-------------------------------------------------------------------------------------------| 
    D|-------------------------------------------------------------------------------------------| 

    d|-------------------------------------------------------------------------------------------| 
    A|-------------------------------------------------------------------------------------------| 
GTR F|-1212121212121212121212121212121212121212-11111111-99999999-8888888888885555-4444-77777777-| 
 1  C|-------------------------------------------------------------------------------------------| 
    G|-------------------------------------------------------------------------------------------| 
    D|-------------------------------------------------------------------------------------------| 

    d|-------------------------------------------------------------------------------------------| 
    A|-------------------------------------------------------------------------------------------| 
GTR F|-------------------------------------------------------------------------------------------| 
 2  C|-1414141414141414141414141414141414141414-13131313-11111111-1010101010107777-6666-99999999-| 
    G|-------------------------------------------------------------------------------------------| 
    D|-------------------------------------------------------------------------------------------| 

    d|------------------------------------------------------------------------| 
    A|------------------------------------------------------------------------| 
GTR F|-99999999999999999-77777777-555555555-444444444444444444444444444444444-| 
 1  C|------------------------------------------------------------------------| 
    G|------------------------------------------------------------------------| 
    D|------------------------------------------------------------------------| 

    d|------------------------------------------------------------------------| 
    A|------------------------------------------------------------------------| 
GTR F|------------------------------------------------------------------------| 
 2  C|-99999999999999999-99999999-777777777-555555555555555555555555555555555-| 
    G|------------------------------------------------------------------------| 
    D|------------------------------------------------------------------------| 

    d|-----------------------------------------------------------------------| 
    A|-----------------------------------------------------------------------| 
GTR F|-5555555555555555-44444444-222222222-7777777777777777------------------| 
 1  C|------------------------------------------------------7777777777777777-| 
    G|-----------------------------------------------------------------------| 
    D|-----------------------------------------------------------------------| 

    d|-----------------------------------------------------------------------| 
    A|-----------------------------------------------------------------------| 
GTR F|-----------------------------------------------------------------------| 
 2  C|-5555555555555555-55555555-44444444-9999999999999999-------------------| 
    G|-----------------------------------------------------99999999999999999-| 
    D|-----------------------------------------------------------------------| 

    d|------------------------------------------------------------------------| 
    A|------------------------------------------------------------------------| 
GTR F|-99999999999999999-77777777-555555555-444444444444444444444444444444444-| 
 1  C|------------------------------------------------------------------------| 
    G|------------------------------------------------------------------------| 
    D|------------------------------------------------------------------------| 

    d|------------------------------------------------------------------------| 
    A|------------------------------------------------------------------------| 
GTR F|------------------------------------------------------------------------| 
 2  C|-99999999999999999-99999999-777777777-555555555555555555555555555555555-| 
    G|------------------------------------------------------------------------| 
    D|------------------------------------------------------------------------| 

    d|-----------------------------------------------------------------------| 
    A|-----------------------------------------------------------------------| 
GTR F|-5555555555555555-44444444-222222222-7777777777777777------------------| 
 1  C|------------------------------------------------------7777777777777777-| 
    G|-----------------------------------------------------------------------| 
    D|-----------------------------------------------------------------------| 

    d|-----------------------------------------------------------------------| 
    A|-----------------------------------------------------33333333333333333-| 
GTR F|-----------------------------------------------------22222222222222222-| 
 2  C|-5555555555555555-55555555-44444444-9999999999999999-44444444444444444-| 
    G|-----------------------------------------------------44444444444444444-| 
    D|-----------------------------------------------------22222222222222222-| 

    d|-------------------------------------------------------------------------------------------| 
    A|-------------------------------------------------------------------------------------------| 
GTR F|-12-12-12-12-12-12-12-12-12-12-12-12-12-12-12--14-14-14-14-14-14-14-14-9-9-9-9-11-11-11-11-| 
1+2 C|-9--9--9--9--9--9--9--9--9--9--9--9--9--9--9---10-10-10-10-10-10-10-10-7-7-7-7-7--7--7--7--| 
    G|-10-10-10-10-10-10-10-10-10-10-10-10-10-10-10--12-12-12-12-12-12-12-12---------------------| 
    D|-----------------------------------------------------------------------8-8-8-8-8--8--8--8--| 

    d|----------------------------------------------------------------------------------------------| 
    A|----------------------------------------------------------------------------------------------| 
GTR F|-12-12-12-12-12-12-12-12-11-11-11-11-9--9--9--14-14-14-14-14-14-14-14-12-12-12-12-11-11-11-11-| 
 1  C|-9--9--9--9--9--9--9--9--9--9--9--9--9--9--9--10-10-10-10-10-10-10-10-10-10-10-10-10-10-10-10-| 
    G|-10-10-10-10-10-10-10-10-10-10-10-10-10-10-10-12-12-12-12-12-12-12-12-12-12-12-12-12-12-12-12-| 
    D|----------------------------------------------------------------------------------------------| 

    d|----------------------------------------------------------------------------------------------| 
    A|----------------------------------------------------------------------------------------------| 
GTR F|-12-12-12-12-12-12-12-12-11-11-11-11-14-14-14-14-14-14-14-14-14-14-14-12-12-12-12-11-11-11-11-| 
 2  C|-9--9--9--9--9--9--9--9--9--9--9--9--9--9--9--10-10-10-10-10-10-10-10-10-10-10-10-10-10-10-10-| 
    G|-10-10-10-10-10-10-10-10-10-10-10-10-10-10-10-12-12-12-12-12-12-12-12-12-12-12-12-12-12-12-12-| 
    D|----------------------------------------------------------------------------------------------| 

    d|-------------------------------------------------------------------------------------------| 
    A|----------------------------------12-12-12-12----------------------------------------------| 
GTR F|-12-12-12-12-12-12-12-9--9--9--9--------------14-14-14-14-14-14-14-14-9-9-9-9--11-11-11-11-| 
1+2 C|-9--9--9--9--9--9--9--9--9--9--9--9--9--9--9--10-10-10-10-10-10-10-10-7-7-7-7--7--7--7--7--| 
    G|-10-10-10-10-10-10-10-10-10-10-10-10-10-10-10-12-12-12-12-12-12-12-12----------------------| 
    D|----------------------------------------------------------------------8-8-8-8--8--8--8--8--| 

    d|----------------------------------------------------------------------------------------------| 
    A|----------------------------------------------------------------------------------------------| 
GTR F|-12-12-12-12-12-12-12-12-11-11-11-11-9--9--9--14-14-14-14-14-14-14-14-12-12-12-12-11-11-11-11-| 
1+2 C|-9--9--9--9--9--9--9--9--9--9--9--9--9--9--9--10-10-10-10-10-10-10-10-10-10-10-10-12-12-12-12-| 
    G|-10-10-10-10-10-10-10-10-10-10-10-10-10-10-10-12-12-12-12-12-12-12-12-10-10-10-10-9--9--9--9--| 
    D|----------------------------------------------------------------------10-10-10-10-9--9--9--9--| 

    d|---------------------------------------------------------------------| 
    A|-12---14-------------12---14-----------------------------------------| 
GTR F|----------13---11-------------13---11-----14---12----11--------11----| 
 1  C|------------------14------------------14------------------14---------| 
    G|---------------------------------------------------------------------| 
    D|---------------------------------------------------------------------| 

Use your second finger to fret the 8 on the D string. Makes it easier. 

    d|---------------------------------------------------------------------------------| 
    A|-----------------5-5-5-5-5-5-5-5-------------------------------------------------| 
GTR F|---------------------------------------------------------7--7--7--7--7--7--7--7--| 
 2  C|-6-6-6-6-6-6-6-6-6-6-6-6-6-6-6-6-10-10-10-10-10-10-10-10-9--9--9--9--9--9--9--9--| 
    G|-6-6-6-6-6-6-6-6-7-7-7-7-7-7-7-7-10-10-10-10-10-10-10-10-10-10-10-10-10-10-10-10-| 
    D|-4-4-4-4-4-4-4-4-4-4-4-4-4-4-4-4-8--8--8--8--8--8--8--8--8--8--8--8--8--8--8--8--| 

    d|----------------------------------------------------------------| 
    A|-12---14-------------12---14------------------------------------| 
GTR F|----------13---11-------------13---11-----14---12----11---------| 
 1  C|------------------14------------------14------------------14----| 
    G|----------------------------------------------------------------| 
    D|----------------------------------------------------------------| 

    d|---------------------------------------------------------------------------------| 
    A|-----------------5-5-5-5-5-5-5-5-------------------------------------------------| 
GTR F|---------------------------------------------------------7--7--7--7--7--7--7--7--| 
 2  C|-6-6-6-6-6-6-6-6-6-6-6-6-6-6-6-6-10-10-10-10-10-10-10-10-9--9--9--9--9--9--9--9--| 
    G|-6-6-6-6-6-6-6-6-7-7-7-7-7-7-7-7-10-10-10-10-10-10-10-10-10-10-10-10-10-10-10-10-| 
    D|-4-4-4-4-4-4-4-4-4-4-4-4-4-4-4-4-8--8--8--8--8--8--8--8--8--8--8--8--8--8--8--8--| 

    d|-----------------------------------------------| 
    A|-------------12----14--------------------------| 
GTR F|-11----13--------------13--12-----11--12p11--9-| 
 1  C|-----------------------------------------------| 
    G|-----------------------------------------------| 
    D|-----------------------------------------------| 

    d|-----------------------------------------------------------------| 
    A|-----------------------------------------------------------------| 
GTR F|-------------------------------------------------2-2-2-2-2-2-2-2-| 
 2  C|-6-6-6-6-6-6-6-6-6-6-6-6-6-6-6-6-5-5-5-5-5-5-5-5-----------------| 
    G|-6-6-6-6-6-6-6-6-6-6-6-6-6-6-6-6-5-5-5-5-5-5-5-5-5-5-5-5-5-5-5-5-| 
    D|-4-4-4-4-4-4-4-4-4-4-4-4-4-4-4-4-3-3-3-3-3-3-3-3-3-3-3-3-3-3-3-3-| 

    d|----------------------------------------------------------------| 
    A|-12---14-------------12---14------------------------------------| 
GTR F|----------13---11-------------13---11-----14---12----11---------| 
 1  C|------------------14------------------14------------------14----| 
    G|----------------------------------------------------------------| 
    D|----------------------------------------------------------------| 

    d|-----------------------------------------------------------------| 
    A|-----------------------------------------------------------------| 
GTR F|-------------------------------------------------2-2-2-2-2-2-2-2-| 
 2  C|-6-6-6-6-6-6-6-6-6-6-6-6-6-6-6-6-5-5-5-5-5-5-5-5-----------------| 
    G|-6-6-6-6-6-6-6-6-6-6-6-6-6-6-6-6-5-5-5-5-5-5-5-5-5-5-5-5-5-5-5-5-| 
    D|-4-4-4-4-4-4-4-4-4-4-4-4-4-4-4-4-3-3-3-3-3-3-3-3-3-3-3-3-3-3-3-3-| 

    d|---------------------------------------------------------------| 
    A|---------------------------------------------------------------| 
GTR F|-9----9h11p11--------------------------------------------------| 
 1  C|---------------9h11p9---6h7p6--4-----6h7p6--4--6---6h7h9-------| 
    G|----------------------------------7-----------------------7----| 
    D|---------------------------------------------------------------| 

    d|-----------------------------------------------------------------| 
    A|-------------------------------------------------5-5-5-5-5-5-5-5-| 
GTR F|-4-4-4-4-4-4-4-4-4-4-4-4-4-4-4-4-----------------5-5-5-5-5-5-5-5-| 
 2  C|-2-2-2-2-2-2-2-2-2-2-2-2-2-2-2-2-4-4-4-4-4-4-4-4-5-5-5-5-5-5-5-5-| 
    G|-2-2-2-2-2-2-2-2-2-2-2-2-2-2-2-2-4-4-4-4-4-4-4-4-3-3-3-3-3-3-3-3-| 
    D|-0-0-0-0-0-0-0-0-0-0-0-0-0-0-0-0-2-2-2-2-2-2-2-2-----------------| 

    d|---------------------------------------------------------| 
    A|---------------------------------------------------------| 
GTR F|-9----9h11p11--------------------------------------------| 
 1  C|---------------9h11p9---6h7p6--4-----6h7p6--4--6---6h7h9-| 
    G|----------------------------------7----------------------| 
    D|---------------------------------------------------------| 

    d|-------------------------------------------------------------| 
    A|-------------------------------------------------5-5-5-5-5-5-| 
GTR F|-4-4-4-4-4-4-4-4-4-4-4-4-4-4-4-4-----------------5-5-5-5-5-5-| 
 2  C|-2-2-2-2-2-2-2-2-2-2-2-2-2-2-2-2-4-4-4-4-4-4-4-4-5-5-5-5-5-5-| 
    G|-2-2-2-2-2-2-2-2-2-2-2-2-2-2-2-2-4-4-4-4-4-4-4-4-3-3-3-3-3-3-| 
    D|-0-0-0-0-0-0-0-0-0-0-0-0-0-0-0-0-2-2-2-2-2-2-2-2-------------| 

tr = trill 

    d|--------------------------------7------------------7------| 
    A|-----------------------7-9-10------10--9h10p9p7h9-----10--| 
GTR F|-----------------6-8-9------------------------------------| 
 1  C|-6 sustain-6-7-9------------------------------------------| 
    G|----------------------------------------------------------| 
    D|----------------------------------------------------------| 
                 P M P M P M  

    d|-----------------------------------------------------------------| 
    A|-----------------------------------------------------------------| 
GTR F|-----------------------------------------------------------------| 
 2  C|-6-6-6-6-6-6-6-6-6-6-6-6-6-6-6-6-7-7-7-7-7-7-7-7-7-7-7-7-7-7-7-7-| 
    G|-6-6-6-6-6-6-6-6-6-6-6-6-6-6-6-6-7-7-7-7-7-7-7-7-7-7-7-7-7-7-7-7-| 
    D|-4-4-4-4-4-4-4-4-4-4-4-4-4-4-4-4-5-5-5-5-5-5-5-5-5-5-5-5-5-5-5-5-| 

(12) Actually begins in the next riff, but I've put it here, so it is easier to read. 

    d|------------------------------------------------7------9----11---(12)-| 
    A|-9h10h10h10h10h10h10h10h10-------------7-9-10------10-----------------| 
GTR F|---------------------------------6-8-9--------------------------------| 
 1  C|---------------------------6-7-9--------------------------------------| 
    G|----------------------------------------------------------------------| 
    D|----------------------------------------------------------------------| 

    d|-----------------------------------------------------------------| 
    A|-----------------------------------------------------------------| 
GTR F|-------------------------------------------------------------13--| 
 2  C|-6-6-6-6-6-6-6-6-6-6-6-6-6-6-6-6-7-7-7-7-7-7-7-7-7-7-7-7-7-7-14--| 
    G|-6-6-6-6-6-6-6-6-6-6-6-6-6-6-6-6-7-7-7-7-7-7-7-7-7-7-7-7-7-7-----| 
    D|-4-4-4-4-4-4-4-4-4-4-4-4-4-4-4-4-5-5-5-5-5-5-5-5-5-5-5-5-5-5-----| 

    d|-----------------------------------------------------------------| 
    A|---7-9---7-9---7---7-9---7-9---7---7-9---7-9---7---7-9---7-9---7-| 
GTR F|-9-----9-----9---8-----8-----8---7-----7-----7---6-----6-----6---| 
 1  C|-----------------------------------------------------------------| 
    G|-----------------------------------------------------------------| 
    D|-----------------------------------------------------------------| 

    d|---------------------------------------------------------------------| 
    A|-5-555-5-555-5-55-4-444-4-444-4-44-3-333-3-333-3-33-2-222-2-222-2-22-| 
GTR F|-4-444-4-444-4-44-4-444-4-444-4-44-4-444-4-444-4-44-4-444-4-444-4-44-| 
 2  C|---------------------------------------------------------------------| 
    G|---------------------------------------------------------------------| 
    D|---------------------------------------------------------------------| 

    d|---------------------------------------------------------------------------------------------| 
    A|---------------------------------------------------------------------------------------------| 
GTR F|-999999999999-111111111111-141414141414-1313131313131313131313-1111111111-999999999-88888888-| 
 1  C|---------------------------------------------------------------------------------------------| 
    G|---------------------------------------------------------------------------------------------| 
    D|---------------------------------------------------------------------------------------------| 

    d|-4-444-4-444-4-44-4-444-4-444-4-44-7-777-7-777-7-55-4-444-4-444-4-44-| 
    A|-5-555-5-555-5-55-4-444-4-444-4-44-5-555-5-555-5-55-5-555-2-777-7-77-| 
GTR F|-4-444-4-444-4-44-4-444-4-444-4-44-4-444-4-444-4-44-4-444-4-444-4-44-| 
 2  C|---------------------------------------------------------------------| 
    G|---------------------------------------------------------------------| 
    D|---------------------------------------------------------------------| 

    d|---------------------------------------------------------------------------------------------| 
    A|---------------------------------------------------------------------------------------------| 
GTR F|-999999999999-111111111111-141414141414-1313131313131313131313-1414141414-16161616-14141414--| 
 1  C|---------------------------------------------------------------------------------------------| 
    G|---------------------------------------------------------------------------------------------| 
    D|---------------------------------------------------------------------------------------------| 

    d|-4-444-4-444-4-44-4-444-4-444-4-44-7-777-7-777-7-55-4-444-4-444-4-44-| 
    A|-5-555-5-555-5-55-4-444-4-444-4-44-5-555-5-555-5-55-5-555-2-777-7-77-| 
GTR F|-4-444-4-444-4-44-4-444-4-444-4-44-4-444-4-444-4-44-4-444-4-444-4-44-| 
 2  C|---------------------------------------------------------------------| 
    G|---------------------------------------------------------------------| 
    D|---------------------------------------------------------------------| 

    d|---------------------------------------------------------------------| 
    A|---------------------------------------------------------------------| 
GTR F|-13131313131313bu131313131313-161616161616-14141414-1313131313131313-| 
 1  C|---------------------------------------------------------------------| 
    G|---------------------------------------------------------------------| 
    D|---------------------------------------------------------------------| 

    d|-4-444-4-444-4-44-4-444-4-444-4-44-7-777-7-777-7-55-4-444-4-444-4-44-| 
    A|-5-555-5-555-5-55-4-444-4-444-4-44-5-555-5-555-5-55-5-555-2-777-7-77-| 
GTR F|-4-444-4-444-4-44-4-444-4-444-4-44-4-444-4-444-4-44-4-444-4-444-4-44-| 
 2  C|---------------------------------------------------------------------| 
    G|---------------------------------------------------------------------| 
    D|---------------------------------------------------------------------| 

    d|----------------------------------------------------------------------| 
    A|----------------------------------------------------------------------| 
GTR F|-1313131313131313-11111111111111-999999999-8888888-99999999999999-----| 
 1  C|------------------------------------------------------------------6-4-| 
    G|----------------------------------------------------------------------| 
    D|----------------------------------------------------------------------| 

    d|-4-444-4-444-4-44-4-444-4-444-4-44-4-444-4-444-44-4-444-4------| 
    A|-5-555-5-555-5-55-4-444-4-444-4-44-5-555-5-555-55-5-555-5------| 
GTR F|-4-444-4-444-4-44-4-444-4-444-4-44-4-444-4-444-44-4-444-4------| 
 2  C|----------------------------------------------------------6--4-| 
    G|---------------------------------------------------------------| 
    D|---------------------------------------------------------------| 

    d|-----------------------------------------------------------------------------------| 
    A|-----------------------------------------------------------------------------------| 
GTR F|----------------------------------------------9-99-9-99-666-6----------------------| 
1+2 C|-11-11-111111-11111111-11-11-6-6-666-6-66-6-6-----------------6-4-44-4-44-444-44-4-| x2 
    G|-11-11-111111-12121212-11-11-6-6-666-7-77-6-6-7-77-7-77-777-7-6-4-44-4-44-444-44-4-| 
    D|-9--9--9-9-9--9-9-9-9--9--9--4-4-444-4-44-4-4-5-55-5-55-555-5-4-2-22-2-22-222-22-2-| 

    d|-----------------------------------------------------------------------------------| 
    A|-----------------------------------------------------------------------------------| 
GTR F|----------------------------------------------9-99-9-99-666-6----------------------| 
 1  C|-11-11-111111-11111111-11-11-6-6-666-6-66-6-6-----------------6-4-44-4-44-444-44-4-| 
    G|-11-11-111111-12121212-11-11-6-6-666-7-77-6-6-7-77-7-77-777-7-6-4-44-4-44-444-44-4-| 
    D|-9--9--9-9-9--9-9-9-9--9--9--4-4-444-4-44-4-4-5-55-5-55-555-5-4-2-22-2-22-222-22-2-| 

    d|----------------------------------------------------------------------------------------------| 
    A|----------------------------------------------------------------------------------------------| 
GTR F|-99999999-1111111111111111-14141414-1313131313131313-14141414-1616161616161616-14141414141414-| 
 2  C|----------------------------------------------------------------------------------------------| 
    G|-77777777-9-9-9-9-9-9-9-9--12121212-1111111111111111-12121212-1414141414141414-12121212121212-| 
    D|----------------------------------------------------------------------------------------------| 

    d|-----------------------------------------------------------------------------------| 
    A|-----------------------------------------------------------------------------------| 
GTR F|----------------------------------------------9-99-9-99-666-6----------------------| 
 1  C|-11-11-111111-11111111-11-11-6-6-666-6-66-6-6-----------------6-4-44-4-44-444-44-4-| 
    G|-11-11-111111-12121212-11-11-6-6-666-7-77-6-6-7-77-7-77-777-7-6-4-44-4-44-444-44-4-| 
    D|-9--9--9-9-9--9-9-9-9--9--9--4-4-444-4-44-4-4-5-55-5-55-555-5-4-2-22-2-22-222-22-2-| 

    d|----------------------------------------------------------------------------------------------| 
    A|----------------------------------------------------------------------------------------------| 
GTR F|-99999999-1111111111111111-14141414-1313131313131313-14141414-1616161616161616-18181818181818-| 
 2  C|----------------------------------------------------------------------------------------------| 
    G|-77777777-9-9-9-9-9-9-9-9--12121212-1111111111111111-12121212-1414141414141414-16161616161616-| 
    D|----------------------------------------------------------------------------------------------| 

Repeat these next two sections until the end. 

    d|----------------------------------------------------------------------| 
    A|---7-9---7-9---7---7-9---7-9---7---7-9---7-9---7----------------------| 
GTR F|-9-----9-----9---8-----8-----8---7-----7-----7------------------------| 
 1  C|----------------------------------------------------------------------| 
    G|------------------------------------------------------------7---6---6-| 
    D|-------------------------------------------------0--0-0-0-0---0---0---| 
                                                         PM  PM    PM  PM 

    d|-------------------------------------------------------------------------| 
    A|-5-555-5-555-5-55-4-444-4-444-4-44-3-333-3-333-3-33----------------------| 
GTR F|-4-444-4-444-4-44-4-444-4-444-4-44-4-444-4-444-4-44----------------------| 
 2  C|-------------------------------------------------------------------------| 
    G|---------------------------------------------------------------7---6---6-| 
    D|----------------------------------------------------0--0-0-0-0---0---0---| 
                                                            PM  PM    PM  PM 

d|---------------------------------------------------------------------------------------| 
A|---------------------------------------------------------------------------------------| 
F|-4-4-4-4-4-4-4-4-4-4-4-4-4-4-4-4-9-99-11-1111-13-1313-11-1111-9-9999-16161616-14141414-| 
C|-2-2-2-2-2-2-2-2-2-2-2-2-2-2-2-2-------------------------------------------------------| 
G|-2-2-2-2-2-2-2-2-2-2-2-2-2-2-2-2-7-77-9--9-9--11-1111-9--9-9--7-7777-14141414-12121212-| 
D|-0-0-0-0-0-0-0-0-0-0-0-0-0-0-0-0-------------------------------------------------------| 

Compartilhe esta música: novo

QR Code
Copiar