Space Oddity

David Bowie

Tom: C
INTRO  
  
If you play this with the right graph. eq. you can  
somehow get the flute like notes playing along with  
it (I've no idea how this works I'm just saying it  
does, pretty cool huh?)  
  
e|--0-0-0-0-0-0-0-0-0-0-0---0-0-0-0-0-0-0-0-0-0-0--R  
B|--1-1-1-1-1-1-1-1-1-1-1---0-0-0-0-0-0-0-0-0-0-0--E  
G|--0-0-0-0-0-0-0-0-0-0-0---0-0-0-0-0-0-0-0-0-0-0--P  
D|--2-2-2-2-2-2-2-2-2-2-2---2-2-2-2-2-2-2-2-2-2-2--E  
A|--3-3-3-3-3-3-3-3-3-3-3---2-2-2-2-2-2-2-2-2-2-2--A  
E|--0-0-0-0-0-0-0-0-0-0-0---0-0-0-0-0-0-0-0-0-0-0?-T  
  
VERSE   
  
e|--0-0-0-0-0-0-0-0-0-0-0---0-0-0-0-0-0-0-0-0-0-0--R  
B|--1-1-1-1-1-1-1-1-1-1-1---0-0-0-0-0-0-0-0-0-0-0--E  
G|--0-0-0-0-0-0-0-0-0-0-0---0-0-0-0-0-0-0-0-0-0-0--P  
D|--2-2-2-2-2-2-2-2-2-2-2---2-2-2-2-2-2-2-2-2-2-2--E  
A|--3-3-3-3-3-3-3-3-3-3-3---2-2-2-2-2-2-2-2-2-2-2--A  
E|--0-0-0-0-0-0-0-0-0-0-0---0-0-0-0-0-0-0-0-0-0-0--T  
  GROUND CONTROL TO MAJOR   TOM   ETC.  
          
  
BRIDGE  
  
e|---0---1---3---0---0---  
B|---1---1---0---2---2---  
G|---0---2---0---2---2---  
D|---2---3---0---2---2---  
A|---3---3---2---0---0---  
E|---0---1---3---0---0---  
  
  
SOLO 1  
  
e|--------------------------------------------------------------------  
B|------------------------------------------------------10------------  
G|-------------------------------------------------9-12----12-9-------  
D|-----10-12-10------------------------------10-12--------------12-10-  
A|--12----------------10-12-10----12------12--------------------------  
E|-----------------12----------12-------------------------------------  
  
e|--------------------------------------------------------------------  
B|---------------------------------12-10---------10-------------------  
G|--------12-9----------9-----9-12-------12-9-12----------------------  
D|--10-12------12-10-12-----------------------------------------------  
A|-----------------------------------------------------5-4-3-2b3r2----  
E|-----------------------------------------------------------0-LR-----  
  
  
SOLO 2  
  
e|-----------------------------------------------  
B|-----------------------------------------------  
G|--------------------10h11h12p11p10-------------  
D|--10-12-10----10-12----------------12p11p10----  
A|--------------------------------------------10-  
E|-----------------------------------------------  
  
e|----------------------------------15-------------------  
B|-------------------------------12----14-12-------------  
G|--------12-10-----------------12-----------14-12-------  
D|--10-12-------12-10----------12------------------14-12-  
A|--------------------12-10------------------------------  
E|-------------------------------------------------------  
  
e|-------------------------------------------------------  
B|-------------------------------12-------12-------------  
G|----------------------12-10----12-10----12-10----------  
D|----------------------------12-------12-------12-10----  
A|-14-13-12---------12--------------------------------12-  
E|----------15-12-15-------------------------------------  
  
e|--------PICK SLIDE---|  
B|--------PICK SLIDE---|  
G|--------PICK SLIDE---|  
D|--12-----------------|  
A|---------------------|  
E|---------------------| 

Compartilhe esta música: novo

QR Code
Copiar