Madrugada

Darvin

Tom: A
E---------------------------------------------/ 
D---------------------------------------------/ 
G---2-----2----4-------4------7-----6-----4--2/ 
D------2----------4--------------------------/ 
A-------------------------------------------/ 
E-------------------------------------------/ 
 
E------------------------------------------/ 
D------------------------------------------/ 
G---6-------4-------2-----4-----6---7-6----/ 
D-----------------------------------------7-/ 
A-------------------------------------------/ 
E-------------------------------------------/ 
 
 
 A       E          Bm            D 
Nada acontece sem causa ou sem razão 
A       E          Bm            D 
E a sua cara na multidão eu vejo então 
 
 
E---------------------------------------------/ 
D---------------------------------------------/ 
G---2-----2----4-------4---6---7------------/ 
D------2----------4--------------------------/ 
A-------------------------------------------/ 
E-------------------------------------------/ 
Obs:'depois desse solo vem otro só que é muito 
dificil  tira no violao' 
 
 
A       E          Bm            D 
Fora dos trilhos o nosso trem correu 
A       E          Bm             
Vejo de longe, alguém venceu 
      D 
Mas quem perdeu fui eu... 
 
  F#m                  E 
Madrugada que estranho então 
       Bm            D 
Fazia frio mas era verão 
 A                      E 
E eu ali parado com os pés no chão 
               Bm           D 
Sem conseguir sair dessa situação... 
 
Obs: 'Se vc quiser arrisca tenta a tira esse solo 
boa sorte' 
 
   A                    E 
Madrugada que estranho então 
       Bm             D 
Fazia frio mas era verão 
 A                      E 
E eu ali parado com os pés no chão 
               Bm           D 
Sem conseguir sair dessa situação... 
 
 
New Band 
Gas or Grass 

Compartilhe esta música: novo

QR Code
Copiar