Can't Believe She's Mine

Cruel Mistress

Tom: A

Guitar 1: Intro Riff (X8)  
e|---------------------------------------------------------------------------| 
B|-----7---8---8-h-10---8----------------------------------------------------| 
G|-------7---7--------7---7--------------------------------------------------| 
D|---------------------------------------------------------------------------| 
A|---------------------------------------------------------------------------| 
E|---------------------------------------------------------------------------| 

Guitar 2: Rhythm A (X1) (Let notes ring) 
e|---------------------------------------------------------------------------| 
B|---------------------------------------------------------------------------| 
G|---------------------------------------------------------------------------| 
D|-----7--5--7--5------------------------------------------------------------| 
A|-----5--5--5--5--7-----9--7--9--9--5---------------------------------------| 
E|-----------------5-----7--7--7--9--3---------------------------------------| 

Bass:  Intro Riff (X1) (Let notes ring) 
G|---------------------------------------------------------------------------| 
D|-----------7---------------------------------------------------------------| 
A|-----5--5----5---------------9---------------------------------------------| 
E|----------------5------7--7-----7--3---------------------------------------| 

Solo 1: Lead Guitar 
e|---------------------------------------------------------------------------| 
B|---------------------------------------------------------------------------| 
G|-----11/12-12-12-12--11-11-9-11~----11/12-12-12-12--11-11-9-11~------------| 
D|---------------------------------------------------------------------------| 
A|---------------------------------------------------------------------------| 
E|---------------------------------------------------------------------------| 

e|---------------------------------------------------------------------------| 
B|---------------------------------------------------------------------------| 
G|-----11/12-12-12-12--11-11-9-11-9-11br-9-7~-----7-9/11-9-7-7~--------------| 
D|---------------------------------------------------------------------------| 
A|---------------------------------------------------------------------------| 
E|---------------------------------------------------------------------------| 


Both Guitars: (Main riff) (Palm Muted) (X2) 'Well I first seen her smile...' 
e|---------------------------------------------------------------------------| 
B|---------------------------------------------------------------------------| 
G|---------------------------------------------------------------------------| 
D|-----7------5--7--55-------------------------------------------------------| 
A|-----555555555555555-7------5--7--55-9-----7--9--77-5----------------------| 
E|---------------------555555555555555-77777777777777-333333333333333--------| 


Both Guitars: (Riff A) (X1) 'When she looks into my eyes...' 
e|---------------------------------------------------------------------------| 
B|---------------------------------------------------------------------------| 
G|---------------------------------------------------------------------------| 
D|---------------------------------------------------------------------------| 
A|-----9------9--9--99--5-55555555555555--------9------9--9--99--5-----------| 
E|-----777777777777777--3-33333333333333--------777777777777777--3-----------| 

Solo 2: Lead Guitar 'When she looks into my eyes...' 
e|---------------------------------------------------------------------------| 
B|---------------------------------------------------------------------------| 
G|---------------------------------------------------------------------------| 
D|---------------------------------------------------------------------------| 
A|---------------------------------------------------------------------------| 
E|-----/7-7-9-7-10~----/7-7-7h9-3~-------------------------------------------| 


Both Guitars: (Chorus riff) (X2) 'Am I dreaming...' 
e|---------------------------------------------------------------------------| 
B|---------------------------------------------------------------------------| 
G|---------------------------------------------------------------------------| 
D|-----7------5--7--55-------------------------------------------------------| 
A|-----555555555555555-7------5--7--55-9-----7--9--77-5----------------------| 
E|---------------------555555555555555-77777777777777-333333333333333--------| 


Solo 2: Lead Guitar (X1) 
e|---------------------------------------------------------------------------| 
B|-----/7~-7br3--------------------------------------------------------------| 
G|--------------7-7/9~-7777777766677799--------------------------------------| 
D|-------------------------------------10-10-10-10-10-76777777---------------| 
A|---------------------------------------------------------------------------| 
E|---------------------------------------------------------------------------| 

e|---------------------------------------------------------------------------| 
B|---------------------------------------------------------------------------| 
G|-/12-12-11-11-----------------/12-12-11-9-9-9h11-11-11/12-12-11-11-14-14-11| 
D|--------------11-11-11h12-12-----------------------------------------------| 
A|---------------------------------------------------------------------------| 
E|---------------------------------------------------------------------------| 

e|---------------------------------------------------------------------------| 
B|-----------------------/20-20-19-19----------------/20-20-19-19------------| 
G|-11-14/16-14-12-12/14~--------------18-18-18h19-19-------------18-18-19-19-| 
D|---------------------------------------------------------------------------| 
A|---------------------------------------------------------------------------| 
E|---------------------------------------------------------------------------| 

e|---------------------------------------------------------------------------| 
B|--/20-20-19-19-17-17h19-19-20-20-19-19-22-22-19-19-22/24-22-20-22----------| 
G|---------------------------------------------------------------------------| 
D|---------------------------------------------------------------------------| 
A|---------------------------------------------------------------------------| 
E|---------------------------------------------------------------------------| 

Both Guitars: (Riff A) (X2) 'When she looks into my eyes...' 
e|---------------------------------------------------------------------------| 
B|---------------------------------------------------------------------------| 
G|---------------------------------------------------------------------------| 
D|---------------------------------------------------------------------------| 
A|-----9------9--9--99-555555555555555---------------------------------------| 
E|-----777777777777777-333333333333333---------------------------------------| 

Solo 2: Lead Guitar 'When she looks into my eyes...' 
e|---------------------------------------------------------------------------| 
B|---------------------------------------------------------------------------| 
G|---------------------------------------------------------------------------| 
D|---------------------------------------------------------------------------| 
A|---------------------------------------------------------------------------| 
E|-----/7-7-9-7-10~----/7-7-7h9-3~-------------------------------------------| 


Bass: Solo  (X1) 
G|---------------------------------------------------------------------------| 
D|---------------777---------------------------------------------------------| 
A|-----5555555555---55----------777-----------999----------------------------| 
E|--------------------5555555555--557777777777---7733333333333333------------| 


Both Guitars: (Chorus riff) (X2) 'Am I dreaming...' 
e|---------------------------------------------------------------------------| 
B|---------------------------------------------------------------------------| 
G|---------------------------------------------------------------------------| 
D|-----7------5--7--55-------------------------------------------------------| 
A|-----555555555555555-7------5--7--55-9-----7--9--77-5----------------------| 
E|---------------------555555555555555-77777777777777-333333333333333--------| 


Solo 1: Lead Guitar (Outro) (X1) 
e|---------------------------------------------------------------------------| 
B|---------------------------------------------------------------------------| 
G|-----11/12-12-12-12--11-11-9-11~----11/12-12-12-12--11-11-9-11~------------| 
D|---------------------------------------------------------------------------| 
A|---------------------------------------------------------------------------| 
E|---------------------------------------------------------------------------| 

e|---------------------------------------------------------------------------| 
B|---------------------------------------------------------------------------| 
G|-----11/12-12-12-12--11-11-9-11-9-11br-9-7~-----7-9/11-9-7-7~--------------| 
D|---------------------------------------------------------------------------| 
A|---------------------------------------------------------------------------| 
E|---------------------------------------------------------------------------| 

************************************ 

| /   slide up 
| \   slide down 
| h   hammer-on 
| p   pull-off 
| ~   vibrato 
| +   harmonic 
| x   Mute note 
| b   Bend 
| pb  Pre-bend 
| br  Bend release 
| pbr Pre-bend release 
| brb Bend release bend 

************************************ 

Compartilhe esta música: novo

QR Code
Copiar