Tom: D
Tom D  




É COMO SE A GUITARRA CANTASE JUNTO 

D      C      G     A7   D 
Hosana,........ 

e|--------10-10--10-8-7-----12-10-10-12--------------------| 
B|--10-10---------------10----------------7-5--------------| 
G|--------------------------------------------7------------| 
D|---------------------------------------------------------| 
A|---------------------------------------------------------| 
E|---------------------------------------------------------| 

D                F#m      G     D/F#   Em D  A  
Cristo é a nossa    

e|---------------------------------------------------------| 
B|-7-8-10--10-10--12-12--10-10-----------------------------| 
G|---------------------------------------------------------| 
D|---------------------------------------------------------| 
A|---------------------------------------------------------| 
E|---------------------------------------------------------| 

e|---------------------------------------------------------| 
B|-7-8-10--10-10--14--10-10--------------------------------| 
G|---------------------------------------------------------| 
D|---------------------------------------------------------| 
A|---------------------------------------------------------| 
E|---------------------------------------------------------| 

e|---------------------------------------------------------| 
B|-10-10--8-8--7-7-----------------------------------------| 
G|----------------7-7/9------------------------------------| 
D|---------------------------------------------------------| 
A|---------------------------------------------------------| 
E|---------------------------------------------------------| 

Compartilhe esta música: novo

QR Code
Copiar