Comunidade de Nilópolis - Cria em mim

Comunidades

Tom: C7+
Artista: Comunidade de Nilópolis 
Álbum: Vamos celebrar 
Música: Cria em mim (Tablatura de guitarra) 
      (0:01)-(0:27) m:s 
e|---------------------------------------| 
B|---------------------------------------| 
G|------12-------12-10p9h10-9----10-9----| 
D|---10-------10--------------10------10-| 
A|-10------10----------------------------| 
E|---------------------------------------| 

e|---------------------------------------| 
B|------------------------------------13-| 
G|------12-------12-10p9h10-9----10-9----| 
D|---10-------10--------------10---------| 
A|10-------10----------------------------| 
G|---------------------------------------| 

    (2:04)-(2:17)m:s 
e|----------------------------------------| 
B|-------------------------------------13-| 
G|------12-------12-10p9h10--9----10-9----| 
D|---10-------10---------------10---------| 
A|10-------10-----------------------------| 
G|----------------------------------------|
C7+ Cria em mim ó Deus, cria em mim ó Deus F7+ Um coração puro C7+ E renova, e renova F7+ Um espírito inabalável Dm F/G C7+ G/B Não retires de nós o teu espírito (2x) Am Em Quero aprender com meus erros F C E não mais cometê-los Am Em Sei que não vai ser tão fácil F Mas, difícil é continuar no erro Dm E viver no mesmo desespero F/G E ficar para trás C Em Eu quero ser C Am Eu quero ser F/G Um homem segundo C O coração de Deus

Compartilhe esta música: novo

QR Code
Copiar