Apology For Non-symmetry

Chronic Future

Tom: D
Intro (Elevens and thirteens) 
e|------------------------------------------| 
B|--------8--10--13-131313--------8--6--8-66| 
G|------------------------------------------| 
D|8888888-6--8---11-111111-666666-6--4--6-44| 
A|8888888------------------666666-----------| 
D|8888888------------------666666-----------| 

e|------------------------------| 
B|-------8--10--13-131313-------| 
G|------------------------------| 
D|444444-6--8---11-111111-888888| 
A|444444------------------888888| 
D|444444------------------888888|x1  

Verse 
e|------------------------------------------------------| 
B|------------------------------------------------------| 
G|---10--10--10------8-8-8-----6-----3------10--10--10--| 
D|-10--10--10--10---8-8-8-8---6-6---3-3---10--10--10--10| 
A|------------------------------------------------------| 
D|8----------------6---------4-----1-----8--------------|x1 

Chorus 
e|----------------------------------------| 
B|----------------------------------------| 
G|----------------------------------------| 
D|888888-666666-444444xx-111111-88888xx888| 
A|888888-666666-444444xx-111111-88888xx888| 
D|888888-666666-444444xx-111111-88888xx888|x1  

Verse 
Chorus 

Breakdown (These are ones) 
e|---------------------| 
B|---------------------| 
G|---------------------| 
D|444444-888888-1111111| 
A|444444-888888-1111111| 
D|444444-888888-1111111| 

e|---------------------| 
B|---------------------| 
G|---------------------| 
D|444444-888888-1-1-1-1-1-1| 
A|444444-888888-1-1-1-1-1-1| 
D|444444-888888-1-1-1-1-1-1| 

e|-----------------------------------| 
B|-----------------------------------| 
G|-----------------------------------| 
D|4--8--11111------------------------| 
A|4--8--11111------------------------| 
D|4--8--11111-Scrape-pick-down-string| 

e|--------------------| 
B|--------------------| 
G|--------------------| 
D|444444-888888-11--11| 
A|444444-888888-11--11| 
D|444444-888888-11--11| 
PM...... .... 

Bridge Pt 1 (Elevens and thirteens) 
e|--------------------------------------| 
B|--------------------------------------| 
G|--------------------------------------| 
D|-------8-10--13-131313--------8-6-8-66| 
A|888888-6-8---11-111111-666666-6-4-6-44| 
D|888888-----------------666666---------| 
PM...... . .   .  . . .  ...... . . . .. 

e|--------------------| 
B|--------------------| 
G|--------------------| 
D|--------------------| 
A|444444-111111-888888| 
D|444444-111111-888888| 
PM...... ...... ......  

Pt 2 
e|-------------------------------------| 
B|-------------------------------------| 
G|-------8-10-13-131313--------8-6-8-88| 
D|888888----------------666666---------| 
A|888888-6-8--11-111111-666666-6-4-6-44| 
D|888888----------------666666---------| 
PM......                ...... 

e|------------------------| 
B|------------------------| 
G|------------------------| 
D|4444444-11111111-8888888| 
A|4444444-11111111-8888888| 
D|4444444-11111111-8888888| 
PM....... ........ ..... 

Intro sequence 

Outro (And be there for you but it feels so bad that I....) 
e|-----------------------------| 
B|-----------------------------| 
G|----------------66/1010101010| 
D|111111-444444----------------| 
A|111111-444444---44/88888-----| 
D|111111-444444x3--------------| 
            (Strum as you slide this) 

Breakdown 

Rhythm  

Intro 
e|xx----------------------------------------------------| 
B|xx----------------------------------------------------| 
G|xx----------------------------------------------------| 
D|xx8888888888888888-66666666666666666-444444444444444xx| 
A|xx8888888888888888-66666666666666666-444444444444444xx| 
D|xx8888888888888888-66666666666666666-444444444444444xx| 

e|---------------------------------| 
B|---------------------------------| 
G|---------------------------------| 
D|1111111111111111-8888888888888888| 
A|1111111111111111-8888888888888888| 
D|1111111111111111-8888888888888888| 

Verse - Rest  

Chorus 
e|----------------------------------------| 
B|----------------------------------------| 
G|----------------------------------------| 
D|888888-666666-444444xx-111111-88888xx888| 
A|888888-666666-444444xx-111111-88888xx888| 
D|888888-666666-444444xx-111111-88888xx888|x1 

Verse 
Chorus 

Breakdown (These are ones) 
e|---------------------| 
B|---------------------| 
G|---------------------| 
D|444444-888888-1111111| 
A|444444-888888-1111111| 
D|444444-888888-1111111| 

e|---------------------| 
B|---------------------| 
G|---------------------| 
D|444444-888888-1-1-1-1-1-1| 
A|444444-888888-1-1-1-1-1-1| 
D|444444-888888-1-1-1-1-1-1| 

e|---------------| 
B|---------------| 
G|---------------| 
D|4--8--111111111| 
A|4--8--111111111| 
D|4--8--111111111| 

e|--------------------| 
B|--------------------| 
G|--------------------| 
D|444444-888888-11--11| 
A|444444-888888-11--11| 
D|444444-888888-11--11| 
PM...... .... 

Bridge  
Pt 1 - Rest  

Pt 2 
e|----------------------| 
B|----------------------| 
G|----------------------| 
D|8888888888-66666666666| 
A|8888888888-66666666666| 
D|8888888888-66666666666| 
PM.......... ........... 

e|------------------------| 
B|------------------------| 
G|------------------------| 
D|4444444-11111111-8888888| 
A|4444444-11111111-8888888| 
D|4444444-11111111-8888888| 
PM....... ........ ..... 

Intro sequence 

Outro (And be there for you but it feels so bad that I....) 
e|----------------| 
B|----------------| 
G|----------------| 
D|111111-444444---| 
A|111111-444444---| 
D|111111-444444-x4| 

Breakdown 

Compartilhe esta música: novo

QR Code
Copiar