Ole Fishlips Is Dead Now

Chiodos

Tom: D
 


Intro                                                                   2nd   
e|--------------------------------------------------------------------|------| 
B|--------------------------------------------------------------------|------| 
G|--------------------------------------------------------------------|------| 
D|--------------5-7-8-8888-8-8888-8-88-5-5555-5-5555-5-55--7h8p7-(x4)-|--0~--| x2 
A|--5-5555-5-55-------------------------------------------------------|--0~--| 
D|--------------------------------------------------------------------|--0~--| 
      ****   **       ****   ****   **   ****   ****   ** 


Verse - Guitar 1 
e|---------------------------------------------------------------------------| 
B|---------------------------------------------------------------------------| 
G|---------------------------------------------------------------------------| 
D|-000000----888888----555555----888888--------------------------------------| 
A|-000000----888888----555555----888888--------------------------------------| 
D|-000000----888888----555555----888888--------------------------------------| 
   ******    ******    ******    ****** 


Guitar 2 (hard to hear, mess with these notes) 
e|---------------------------------------------------------------------------| 
B|-------------13p0----------------------------------------------------------| 
G|-14p0---10p0---------------------------------------------------------------| 
D|---------------------12p0--------------------------------------------------| 
A|---------------------------------------------------------------------------| 
D|---------------------------------------------------------------------------| 


Pre Chorus 
e|---------------------------------------------------------------------------| 
B|---------------------------------------------------------------------------| 
G|-12--------14-------15---------17---------22-------21----------------------| 
D|--x(x8)-----x(x8)----x(x8)------x(x8)------x(x4)----x(x4)------------------| 
A|-10--------12-------13---------15---------20-------19----------------------| 
D|---------------------------------------------------------------------------| 


Chorus                                                            1st          2nd 
e|------------------------------------------------------------|--------------|------------------------| 
B|------------------------------------------------------------|--------------|------------------------| 
G|--7---------14-------15-------14--------10---------12-------|-22-----21----|--10------9-------------| 
D|--x(x16)-----x(x8)----x(x4)----x(x4)-----x(x16)-----x(x8)---|--x(x4)--x(x4)|---x(x4)--x(x4)---------| 
A|--5---------12-------13-------12---------8---------10-------|-20-----19----|---8------7-------------| 
D|------------------------------------------------------------|--------------|------------------------| 


Intro 

Verse 

Pre Chorus 

Chorus 


Breakdown 
e|---------------------------------------------------------------------------| 
B|---------------------------------------------------------------------------| 
G|---7--8--------------------------------------------------------------------| 
D|---x--x--------------------------------------------------------------------| 
A|---5--6--------------------------------------------------------------------| 
D|---------------------------------------------------------------------------| 
      (starts slow, progress with song) 

                                             Every 4th time, natural harmonic 
e|----------------------------------------|------------------<4>--------------------| 
B|---4^----4^-----------------------------|------------------<4>--------------------| 
G|---7^----7^-----------------------------|------------------<4>--------------------| 
D|-0-----0-----0--------------------------|-----------------------------------------| 
A|-0-----0-----0------------44------------|----------44-----------------------------| 
D|-0-----0-----0------001133--331100------|----001133--33---------------------------| 
   *     *     * 

Chorus 


e|---------------------------------------------------------------------------| 
B|---------------------------------------------------------------------------| 
G|---7--8--------------------------------------------------------------------| 
D|---x--x--------------------------------------------------------------------| 
A|---5--6--------------------------------------------------------------------| 
D|---------------------------------------------------------------------------| 
  Slower than breakdown, end on 5x7 

Compartilhe esta música: novo

QR Code
Copiar