Mosh Or Die

Chainsaw Disaster

Tom: C
Tuning Drop C: C G C F A D 

                                +Gutiar 1+ 

Intro                                                                      x2                  
-----------------------------------------------------------------------------| 
-----------------------------------------------------------------------------| 
-----------------------------------------------------------------------------| 
-0-0---------0-0---------0-0---------7-6-5-3---------------------------------| 
-0-0-5h8p5h8-0-0-6h9p6h9-0-0-5h8p5h8-7-6-5-3---------------------------------| 
-0-0---------0-0---------0-0---------7-6-5-3---------------------------------| 
 * *         * *         * *         * * * * 
Verse 
-----------------------------------------------------------------------------| 
-----------------------------------------------------------------------------| 
-----------------------------------------------------------------------------| 
-----------------------------------------------------------------------------| 
---8tr-7tr-8tr-10tr-8tr-7tr-8tr-5tr-7tr-8tr-5tr-8tr-7~-----------------------| 
-0---------------------------------------------------------------------------| 
| 
-----------------------------------------------------------------------------| 
-----------------------------------------------------------------------------| 
-----------------------------------------------------------------------------| 
-----------------------------------------------------------------------------| 
---8tr-7tr-8tr-10tr-8tr-7tr-8tr-5tr-7tr-8tr-5tr-8tr-7tr-5tr-7tr--------------| 
-0---------------------------------------------------------------------------| 
| 
-----------------------------------------------------------------------------| 
-----------------------------------------------------------------------------| 
-----------------------------------------------------------------------------| 
-----------------------------------------------------------------------------| 
---8tr-7tr-8tr-10tr-8tr-7tr-8tr-0-000-0-000-000------------------------------| 
-0------------------------------0-000-0-000-000------------------------------| 
| 
-----------------------------------------------------------------------------| 
-----------------------------------------------------------------------------| 
-----------------------------------------------------------------------------| 
-----------------------------------------------|-Snare does this rhythm too-|| 
---5tr-4tr-5tr-7tr-8tr-7tr-5tr--0-000-0-000-000-0-000---000---000-000---000--| 
-0------------------------------0-000-0-000-000-0-000---000---000-000---000--| 
                                                * ***   ***   *** ***   *** 


Breakdown 
-----------------------------------------------------------------------------| 
-----------------------------------------------------------------------------| 
-----------------------------------------------------------------------------| 
-----------------------------------------------------------------------------| 
-000-000---000-0-0~--5h8p5h8p5h8p5h8--000-000---000-0-0~-6h9p6h9p6h9p6h9-----| 
-000-000---000-0-0~-------------------000-000---000-0-0~---------------------| 
| 
-----------------------------------------------------------------------------| 
-----------------------------------------------------------------------------| 
-----------------------------------------------------------------------------| 
-----------------------------------------------------------------------------| 
-000-000--0-0-0-0---------------------000-000--0-0-0-0-----------------------| 
-000-000--0-0-0-0---------------------000-000--0-0-0-0-----------------------| 
 *** ***  * * * *                     *** ***  * * * *                    random part at end 
---------------------------------------------------------------------------|-------------------| 
---------------------------------------------------------------------------|-------------------| 
---------------------------------------------------------------------------|-------------------| 
---------------------------------------------------------------------------|-------------------| 
-000-000-000--------000-000-000-5h7p5--000-000-000-------000-000-000-5h7p5-|-3h4h5-------------| 
-000-000-000-5h7p5--000-000-000--------000-000-000-5h7p5-000-000-000-------|--------7-6-5-33---| 


verse 2 
-----------------------------------------------------------------------------| 
-----------------------------------------------------------------------------| 
-----------------------------------------------------------------------------| 
-----------------------------------------------------------------------------| 
---8tr-7tr-8tr-10tr-8tr-7tr-8tr--3h4h5---------------------------------------| 
-0-------------------------------------7-6-5-3-------------------------------| 
| 
-----------------------------------------------------------------------------| 
-----------------------------------------------------------------------------| 
-----------------------------------------------------------------------------| 
-----------------------------------------------------------------------------| 
---8tr-7tr-8tr-10tr-8tr-7tr-8tr-5tr-7tr-8tr-5tr-8tr-7~-----------------------| 
-0---------------------------------------------------------------------------| 
| 
-----------------------------------------------------------------------------| 
-----------------------------------------------------------------------------| 
-----------------------------------------------------------------------------| 
-----------------------------------------------------------------------------| 
---8tr-7tr-8tr-10tr-8tr-7tr-8tr-5tr-7tr-8tr-5tr-8tr-7tr-5tr-7tr---0----------| 
-0----------------------------------------------------------------0----------| 
                                                                  * 

Interlude 
-----------------------------------------------------------------------------| 
-----------------------------------------------------------------------------| 
-----------------------------------------------------------------------------| 
-Guitar 2 does hammer on riff ---0~----\\\\----------------------------------| 
---------------------------------0~----\\\\-PICK SLIDE-----------------------| 
---------------------------------0~------------------------------------------| 
| 
-------------------------------------------------------------|---------------| 
-Guitar 1 join in----------------------------------------(x2)|---------7ah---| 
-------------------------------------------------------------|-----7ah-------| 
-0h7p5-0h7p5-0h7p5-0h7p5-0h8p5-0h7p5-0h7p5-0h7p5-0h7p5-0h8p5-|---------------| 
-------------------------------------------------------------|---------------| 
-------------------------------------------------------------|---------------| 

I SEE DEAD PEOPLE 

Breakdown 2                                                                x2 
-----------------------------------------------------------------------------| 
-----------------------------------------------------------------------------| 
-----------------------------------------------------------------------------| 
-0~---00000~--0~-0-0-0-0~---0~---00000~--0~-0-0-0----------------------------| 
-0~---00000~--0~-0-0-0-0~---0~---00000~--0~-0-0-0-5b6r5p0--------------------| 
-0~---00000~--0~-0-0-0-0~---0~---00000~--0~-0-0-0----------------------------| 
|                                                                          x2 
-----------------------------------------------------------------------------| 
-----------------------------------------------------------------------------| 
-----------------------------------------------------------------------------| 
-000-000-00000~--0~00~0~0~----000-000-00000~--0~--0~-------------------------| 
-000-000-00000~--0~00~0~0~----000-000-00000~--0~--0~-------------------------| 
-000-000-00000~--0~00~0-0~----000-000-00000~--0~--0~-------------------------| 


Chaos Chords           x4                      x2 
------------------------|-----------------------|-----------------------------| 
------------------------|-----------------------|-----------------------------| 
------------------------|-----------------------|-----------------------------| 
--7\6---7\6---7\6-------|-9\8---9\8---9\8-------|-11\10---11\10---11\10-------| 
--6\5-0-6\5-0-6\5-0-0-0-|-8\7-0-8\7-0-8\7-0-0-0-|-10\9--0-10\9--0-10\9--0-0-0-| 
------0-----0-----0-0-0-|-----0-----0-----0-0-0-|-------0-------0-------0-0-0-| 
| 
-------------------------------------|----------------------------------------| 
----------------------------5nh------|----------------------------------------| 
-------------------------------------|----------------------------------------| 
--7\6---7\6---7\6----------------5nh-|----------------------------------------| 
--6\5-0-6\5-0-6\5-0-0-0--------------|--000-000----000-000-12\\---------------| 
------0-----0-----0-0-0--------------|--000-000----000-000-12\\---------------| 
                                        *** ***    *** *** 

Breakdown 3                   x2                                                                x2 
-------------------------------|-----------------------------------------------------------------| 
-------------------------------|-----------------------------------------------------------------| 
---------------------5-4-------|-----------------------------------------------------------------| 
---------------5h6p5-----6-5---|-------------------------------------------------------------5nh-| 
-000--000--000-----------------|-000-000-000-000-000-000-000-00--000-000-000-000-000-000-000-----| 
-000--000--000-----------------|-000-000-000-000-000-000-000-00--000-000-000-000-000-000-000-----| 
|***  ***  ***                   *** *** *** *** *** *** *** **  *** *** *** *** *** *** *** 
-------------------------------------------------------------------------------------------------| 
-------------------------------------------------------------------------------------------------| 
-------------------------------------------------------------------------------------------------| 
-------------------------------------------------------------------------------------------------| 
-888-888-888-888-888-888-888-888-101010-101010-101010-101010-101010-101010-101010-101010---------| 
-888-888-888-888-888-888-888-888-101010-101010-101010-101010-101010-101010-101010-101010---------| 
 *** *** *** *** *** *** *** *** * * *  * * *  * * *  * * *  * * *  * * *  * * *  * * *  
|                                                                                      x2  Then end 
----------------------------------------------------------------------------------------|---------| 
----------------------------------------------------------------------------------------|---------| 
----------------------------------------------------------------------------------------|---------| 
----------------------------------------------------------------------------------------|--0~~----| 
----------------------------------------------------------------------------------------|--0~~----| 
-00000000000000000000000000000000000000000000000000000000000000000000055555788887775555-|--0~~----| 





                                     +Guitar 2+ 
Intro                                                                      x2                          
-----------------------------------------------------------------------------| 
-----------------------------------------------------------------------------| 
-----------------------------------------------------------------------------| 
-0-0-5h8p5h8-0-0-6h9p6h9-0-0-6h9p6h9-7-6-5-3---------------------------------| 
-0-0---------0-0---------0-0---------7-6-5-3---------------------------------| 
-0-0---------0-0---------0-0---------7-6-5-3---------------------------------| 
 * *         * *         * *         * * * * 

Verse 
-----------------------------------------------------------------------------| 
-----------------------------------------------------------------------------| 
-----------------------------------------------------------------------------| 
-----------------------------------------------------------------------------| 
---8tr-7tr-8tr-10tr-8tr-7tr-8tr-5tr-7tr-8tr-5tr-8tr-7~-----------------------| 
-0---------------------------------------------------------------------------| 
| 
-----------------------------------------------------------------------------| 
-----------------------------------------------------------------------------| 
-----------------------------------------------------------------------------| 
---8tr-7tr-8tr-10tr-8tr-7tr-8tr-5tr-7tr-8tr-5tr-8tr-7tr-5tr-7tr--------------| 
-----------------------------------------------------------------------------| 
-0---------------------------------------------------------------------------| 
| 
-----------------------------------------------------------------------------| 
-----------------------------------------------------------------------------| 
-----------------------------------------------------------------------------| 
-----------------------------------------------------------------------------| 
---8tr-7tr-8tr-10tr-8tr-7tr-8tr-0-000-0-000-000------------------------------| 
-0------------------------------0-000-0-000-000------------------------------| 
| 
-----------------------------------------------------------------------------| 
-----------------------------------------------------------------------------| 
-----------------------------------------------------------------------------| 
-----------------------------------------------|-Snare does this rhythm too-|| 
---5tr-4tr-5tr-7tr-8tr-7tr-5tr--0-000-0-000-000-0-000---000---000-000---000--| 
-0------------------------------0-000-0-000-000-0-000---000---000-000---000--| 
                                                * ***   ***   *** ***   *** 

Breakdown 
-----------------------------------------------------------------------------| 
-----------------------------------------------------------------------------| 
-----------------------------------------------------------------------------| 
-----------------------------------------------------------------------------| 
-000-000---000-0-0~--5h8p5h8p5h8p5h8--000-000---000-0-0~-6h9p6h9p6h9p6h9-----| 
-000-000---000-0-0~-------------------000-000---000-0-0~---------------------| 
| 
-----------------------------------------------------------------------------| 
-----------------------------------------------------------------------------| 
-----------------------------------------------------------------------------| 
-----------------------------------------------------------------------------| 
-000-000--0-0-0-0---------------------000-000--0-0-0-0-----------------------| 
-000-000--0-0-0-0---------------------000-000--0-0-0-0-----------------------| 
 *** ***  * * * *                     *** ***  * * * *                    random part at end 
---------------------------------------------------------------------------|-------------------| 
---------------------------------------------------------------------------|-------------------| 
---------------------------------------------------------------------------|-------------------| 
---------------------------------------------------------------------------|-------------------| 
-000-000-000--------000-000-000-5h7p5--000-000-000-------000-000-000-5h7p5-|-0--0--0-00--------| 
-000-000-000-5h7p5--000-000-000--------000-000-000-5h7p5-000-000-000-------|-0--0--0-00--------| 


verse 2 
-----------------------------------------------------------------------------| 
-----------------------------------------------------------------------------| 
-----------------------------------------------------------------------------| 
-----------------------------------------------------------------------------| 
---8tr-7tr-8tr-10tr-8tr-7tr-8tr--0--0--0-00----------------------------------| 
-0-------------------------------0--0--0-00----------------------------------| 
| 
-----------------------------------------------------------------------------| 
-----------------------------------------------------------------------------| 
-----------------------------------------------------------------------------| 
-----------------------------------------------------------------------------| 
---8tr-7tr-8tr-10tr-8tr-7tr-8tr-5tr-7tr-8tr-5tr-8tr-7~-----------------------| 
-0---------------------------------------------------------------------------| 
| 
-----------------------------------------------------------------------------| 
-----------------------------------------------------------------------------| 
-----------------------------------------------------------------------------| 
---8tr-7tr-8tr-10tr-8tr-7tr-8tr-5tr-7tr-8tr-5tr-8tr-7tr-5tr-7tr--------------| 
------------------------------------------------------------------0----------| 
-0----------------------------------------------------------------0----------| 
                                                                  * 
Interlude thing 
-------------------------------------------------------------|---------------| 
-Guitar 1 joins in- later--------------------------------(x6)|---------7ah---| 
-------------------------------------------------------------|-----7ah-------| 
-0h7p5-0h7p5-0h7p5-0h7p5-0h8p5-0h7p5-0h7p5-0h7p5-0h7p5-0h8p5-|---------------| 
-------------------------------------------------------------|---------------| 
-------------------------------------------------------------|---------------| 

Breakdown 2                                                                x2 
-----------------------------------------------------------------------------| 
-----------------------------------------------------------------------------| 
-----------------------------------------------------------------------------| 
-0~---00000~--0~-0-0-0-0~---0~---00000~--0~-0-0-0----------------------------| 
-0~---00000~--0~-0-0-0-0~---0~---00000~--0~-0-0-0-5b6r5p0--------------------| 
-0~---00000~--0~-0-0-0-0~---0~---00000~--0~-0-0-0----------------------------| 
|                                                                          x6 
--17-------17-------15-----17-------17-------15------------------------------| 
-----15-------15-------15-----15-------15-------14---------------------------| 
--------14-------14--------------14-------14---------------------------------| 
-----------------------------------------------------------------------------| 
-----------------------------------------------------------------------------| 
-----------------------------------------------------------------------------| 


Chaos Chords           x4                      x2 
------------------------|-----------------------|-----------------------------| 
------------------------|-----------------------|-----------------------------| 
------------------------|-----------------------|-----------------------------| 
--7\6---7\6---7\6-------|-9\8---9\8---9\8-------|-11\10---11\10---11\10-------| 
--6\5-0-6\5-0-6\5-0-0-0-|-8\7-0-8\7-0-8\7-0-0-0-|-10\9--0-10\9--0-10\9--0-0-0-| 
------0-----0-----0-0-0-|-----0-----0-----0-0-0-|-------0-------0-------0-0-0-| 
| 
-------------------------------------|----------------------------------------| 
----------------------------5nh------|----------------------------------------| 
-------------------------------------|----------------------------------------| 
--7\6---7\6---7\6----------------5nh-|----------------------------------------| 
--6\5-0-6\5-0-6\5-0-0-0--------------|--000-000----000-000-12\\---------------| 
------0-----0-----0-0-0--------------|--000-000----000-000-12\\---------------| 
                                        *** ***    *** *** 

Breakdown 3                   x2                                                                x2 
-------------------------------|-----------------------------------------------------------------| 
--------------------5-4--------|-----------------------------------------------------------------| 
---------------4h5p4----5-4----|-----------------------------------------------------------------| 
-------------------------------|-------------------------------------------------------------5nh-| 
-000--000--000-----------------|-000-000-000-000-000-000-000-00--000-000-000-000-000-000-000-----| 
-000--000--000-----------------|-000-000-000-000-000-000-000-00--000-000-000-000-000-000-000-----| 
|***  ***  ***                   *** *** *** *** *** *** *** **  *** *** *** *** *** *** *** 
-------------------------------------------------------------------------------------------------| 
-------------------------------------------------------------------------------------------------| 
-------------------------------------------------------------------------------------------------| 
-------------------------------------------------------------------------------------------------| 
-888-888-888-888-888-888-888-888-101010-101010-101010-101010-101010-101010-101010-101010---------| 
-888-888-888-888-888-888-888-888-101010-101010-101010-101010-101010-101010-101010-101010---------| 

-------------------------------------------------------------------------------------------------| 
-------------------------------------------------------------------------------------------------| 
-------------------------------------------------------------------------------------------------| 
-------------------------------------------------------------------------------------------------| 
----------------------------------------------------------------------55554444488888-------------| 
-000000000000000000000000000000000000000000000000000000000000000000000---------------------------| 

End with this riff 
----------------------------------------------------| 
----------------------------------------------------| 
--7~-8~-7~------------------------------------------| 
-----------8~-7~--------7~-8~-7~--------------------| 
-----------------9~-10~----------10~-9~-5~~~~b(6)~~-| 
----------------------------------------------------| 
 

Compartilhe esta música: novo

QR Code
Copiar