True Till Death

Chain Of Strength

INTRO RIFF 
e|-------------------------| 
B|-------------------------| 
G|-------------------------| 
D|--5--------5---------5---| 
A|--3--------3---------3---| 
E|-------------------------| 
                  
VERSE #1 
e|---------------------------------------------| 
B|---------------------------------------------| 
G|---------------------------------------------| 
D|--5555-5555-5555-5555------------------------| 
A|--3333-3333-3333-3333--6666-6666-6666-6666---| 
E|-----------------------4444-4444-4444-4444---| 

Chorus 
e|--------------------| 
B|--------------------| 
G|--------------------| 
D|--5-----5-----5-----| 
A|--3--6--3--6--3-6---| 
E|-----4-----4----4---| 

VERSE #2 
e|---------------------------------------------| 
B|---------------------------------------------| 
G|---------------------------------------------| 
D|--5555-5555-5555-5555------------6666-6666---| 
A|--3333-3333-3333-3333--6666-6666-4444-4444---| 
E|-----------------------4444-4444-------------| 

BRIDGE 
e|--------------------------------------------| 
B|--------------------------------------------| 
G|--------------------------------------------| 
D|--5555-5555-5555-5555-5555-5555-5555-5555---| 
A|--3333-3333-3333-3333-3333-3333-3333-3333---| 
E|--------------------------------------------| 
    ---- ---- ---- ---- ---- ---- ---- ---- 


 

Compartilhe esta música: novo

QR Code
Copiar