Wizards

Chad Sugg

Tom: C
Intro 
e|--------x---------x-----|-------x---------x-----| 
B|----(1)-x--0------x-----|-------x--0------x-----| 
G|-----0--x-------0-x-(0)-|-----2-x-------0-x-(0)-| 
D|--2~--------------------|-----------------------| 
A|--3~----x--2~-----x-----|---0---x--2~-----x-----| 
E|-----------3~-----------|----------3~-----------| x2 

verse 1 
e|--------x---------x-----|-------x---------x-----| 
B|----(1)-x--0------x-----|-------x--0------x-----| 
G|-----0--x-------0-x-(0)-|-----2-x-------0-x-(0)-| 
D|--2~--------------------|-----------------------| 
A|--3~----x--2~-----x-----|---0---x--2~-----x-----| 
E|-----------3~-----------|----------3~-----------|  
Well sure I think you're amazing 
Even when I don't have to 

e|--------x---------x-----|-------x--0~---0-------| 
B|----(1)-x--0------x-----|-------x--0~-----1-----| 
G|-----0--x-------0-x-(0)-|-----2-x--0~-------0---| 
D|--2~--------------------|----------0~-----------| 
A|--3~----x--2~-----x-----|---0---x--2~-----------| 
E|-----------3~-----------|----------3------------|  
No one can touch you when it comes to that 

e|--------x---------x-----|-------x---------x-----| 
B|----(1)-x--0------x-----|-------x--0------x-----| 
G|-----0--x-------0-x-(0)-|-----2-x-------0-x-(0)-| 
D|--2~--------------------|-----------------------| 
A|--3~----x--2~-----x-----|---0---x--2~-----x-----| 
E|-----------3~-----------|----------3~-----------|  
Goodbyes never made much sense 
I was young and in love and I didn't wanna say it 


e|--------x---------x-----|-------x---------x-----| 
B|----(1)-x--0------x-----|-------x--0------x-----| 
G|-----0--x-------0-x-(0)-|-----2-x-------0-x-(0)-| 
D|--2~--------------------|-----------------------| 
A|--3~----x--2~-----x-----|---0---x--2~-----x-----| 
E|-----------3~-----------|----------3~-----------|  
But you fell into my world 
Don't wait, kiss the girl 
C It's love F I know 'cause I can tell C F I like your style, I think I'll keep you around C F You don't believe in all the things I say C F I'll prove you wrong, babe, just you wait
C - F - C - F verse 2 C G Think back to the better days Am G When the sun went down and we said no way C G Don't think you're all we need Am G Yeah we got this, we got this C G A couple kids from Tennessee Am G How's the view up there? C G The cool kids got their headphones on Am G With another shitty band and the same sad song C G I can't say I'm not the same Am G 'Cause I do it, yeah I do it C G Just look the other way Am G Thank god I'm not alone
C It's love F I know 'cause I can tell C F I like your style, I think I'll keep you around C F You don't believe in all the things I say C F I'll prove you wrong, babe, just you wait
C - F - C - F verse 3 C G I got a job working 9 to 5 Am So I could buy an apartment G On the upper east side C G Yeah this city ain't always nice Am G But it's home, so I call it mine C G It's getting late, just your close eyes Am G We're staying in tonight C G We're staying in Am G We're staying tonight C G Am G I'll put in Deathly Hallows and we'll fall asleep C G Am G To the sound of wizards and the city streets C G Am G I could get used to this, how about you C G Am Feels like we're infinite, and I like it
C It's love F I know 'cause I can tell C F I like your style, I think I'll keep you around C F You don't believe in all the things I say C F C I'll prove you wrong, babe, just you wait F C just you wait F C just you wait
*********************************** | x dead note | () ghost note | ~ vibrato ***********************************

Compartilhe esta música: novo

QR Code
Copiar