Uterovaginal Insertion Of Extirpated Anomalies

Cephalotripsy

Tom: B
Tuning: B  F#  B  E  G#  C# 


Riff 1                           1. - 9. 
||------------------------------------|| 
||------------------------------------|| 
||------------------------------------|| 
||------------------------------------|| x10 
||-3--2--3--5--3--2--2--1--2--4--2--1-|| 
||-3--2--3--5--3--2--2--1--2--4--2--1-|| 
   .  .  .  .  .     .  .  .  .  . 

10. 
||----------------------------------------------|| 
||----------------------------------------------|| 
||----------------------------------------------|| 
||----------------------------------------------|| 
||-3--2--3--5--3--2--2--1--2--4--1--2~~~~~~~~~~-|| 
||-3--2--3--5--3--2--2--1--2--4--1--2~~~~~~~~~~-|| 
   .  .  .  .  .     .  .  .  .  . 

Riff 2                                              1. 
||----------------------------------------------------|| 
||----------------------------------------------------|| 
||----------------------------------------------------|| 
||----------------------------------------------------|| x5 
||-2--1-2-4-3-2--1--2--3--2---2--1-2-4-3--4--3-4-5--4-|| 
||-2--1-2-4-3-2--1--2--3--2---2--1-2-4-3--4--3-4-5--4-|| 
   .  . . . . .  .  .  .      .  . . . .  .  . . . 
                                                  2. - 5. 
||----------------------------------------------------|| 
||----------------------------------------------------|| 
||----------------------------------------------------|| 
||----------------------------------------------------|| 
||-3--1-2-4-3-2--1--2--3--2---2--1-2-4-3--4--3-4-5--4-|| 
||-3--1-2-4-3-2--1--2--3--2---2--1-2-4-3--4--3-4-5--4-|| 
   .  . . . . .  .  .  .      .  . . . .  .  . . . 

Riff 3 
||------------------------------------|| 
||------------------------------------|| 
||------------------------------------|| 
||------------------------------------||  x4 
||-2--4--5--1--2--4--2--4--5--1--2--4-|| 
||-2--4--5--1--2--4--2--4--5--1--2--4-|| 
   .  .  .  .  .  .  .  .  .  .  .  . 

Riff 4 
||--------------------|--------------------------|| 
||--------------------|--------------------------|| 
||--------------------|--------------------------|| 
||--------------------|--------------------------|| x4 
||-4-4-3-4-5-4--1--2--|-4-4-3-4-5-4--1--2--3--2--|| 
||-4-4-3-4-5-4--1--2--|-4-4-3-4-5-4--1--2--3--2--|| 
   . . . . . .  .  .    . . . . . .  .  .  . 

Then it slows down 
||--------------------|--------------------------|| 
||--------------------|--------------------------|| 
||--------------------|--------------------------|| 
||--------------------|--------------------------|| x2 
||-4-4-3-4-5-4--1--2--|-4-4-3-4-5-4--1--2--3--2--|| 
||-4-4-3-4-5-4--1--2--|-4-4-3-4-5-4--1--2--3--2--|| 
   . . . . . .  .  .    . . . . . .  .  .  . 

Riff 5 
||------------------|------------------|| 
||------------------|------------------|| 
||------------------|------------------|| 
||------------------|------------------|| x10 
||-4--2--1--3--2--1-|-4--2--1--3--2--1-|| 
||-4--2--1--3--2--1-|-4--2--1--3--2--1-|| 
   .  .  .  .  .      .  .  .  .  . 

Riff 6 
||--------------------------|--------------------------|| 
||--------------------------|--------------------------|| 
||--------------------------|--------------------------|| 
||--------------------------|--------------------------|| x4 
||-4/3-2-3-1--2--3--2--1--2-|-4/3-2-3-1--2--3--2--1--2-|| 
||-4/3-2-3-1--2--3--2--1--2-|-4/3-2-3-1--2--3--2--1--2-|| 
       . . .  .  .  .  .  .       . . .  .  .  .  .  . 
Riff 7 
||-----------------|-----------------|---------------|-------------------| 
||-----------------|-----------------|---------------|-------------------| 
||-----------------|-----------------|---------------|-------------------| 
||-----------------|-----------------|---------------|-------------------| 
||-4-3-2-3-2-1-2-3-|-4-3-2-4-3-2-1-4-|-3-2-4-3-2-4-3-|-2-4-3-2-3-2-1-2-3-| 
||-4-3-2-3-2-1-2-3-|-4-3-2-4-3-2-1-4-|-3-2-4-3-2-4-3-|-2-4-3-2-3-2-1-2-3-| 

|-----------------|| 
|-----------------|| 
|-----------------|| 
|-----------------|| 
|-4-3-2-3-2-1-2-3-|| 
|-4-3-2-3-2-1-2-3-|| 

Riff 8 
||-------------------------|-------------------------|| 
||-------------------------|-------------------------|| 
||-------------------------|-------------------------|| 
||-------------------------|-------------------------|| x4 
||-4-3-3--4--3--2--3--4--2-|-4-3-3--4--3--2--3--4--2-|| 
||-4-3-3--4--3--2--3--4--2-|-4-3-3--4--3--2--3--4--2-|| 
   . . .  .  .  .  .  .      . . .  .  .  .  .  . 

Riff 1 variation/Outro 
||-------------------------|-------------------------|| 
||-------------------------|-------------------------|| 
||-------------------------|-------------------------|| 
||-------------------------|-------------------------|| x4 
||-3-2-3-5-3-2-2-1-2-4-2-1-|-3-2-3-5-3-2-2-1-2-3-4-3-|| 
||-3-2-3-5-3-2-2-1-2-4-2-1-|-3-2-3-5-3-2-2-1-2-3-4-3-|| 
   . . . . .   . . . . .     . . . . .   . . . . . 


 

Compartilhe esta música: novo

QR Code
Copiar