Sally

Carusella

Intro 

Eb|-----------------------------------|  |----------------------------------------------------| 
Bb|-----------------------------------|  |----------------------------------------------------| 
Gb|-----------------------------------|  |------------------------------5--5-----5--5-----5---| 
Db|---0---0---0---0---0---0---0---0---|  |------7--7-----7--7-----7---------------------------| 
Ab|---0---0---0---0---0---0---0---0---|  |---0--------0--------0-----0--------0--------0------| 
Db|---0---0---0---0---0---0---0---0---|  |----------------------------------------------------| 

Eb|----------------------------------------------------| 
Bb|----------------------------------------------------| 
Gb|----------------------------------------------------| 
Db|------6--6-----6--6-----6-----6--6-----6--6-----6---| 
Ab|---0--------0--------0-----0--------0--------0------| 
Db|----------------------------------------------------| 

Verse 

Eb|---------------------------|--------------------------| 
Bb|---------------------------|--------------------------| 
Gb|---------------------------|--------------------------| 
Db|---0--0--0--0--0--0--0--0--|--3--3--3--3--2--2--2--2--| 
Ab|---0--0--0--0--0--0--0--0--|--3--3--3--3--2--2--2--2--| 
Db|---0--0--0--0--0--0--0--0--|--3--3--3--3--2--2--2--2--| 

Pre-Chorus (Just after the first verse. Also the outro) 

Eb|-----------------------------------------------------| 
Bb|-----------------------------------------------------| 
Gb|-----------------------------------------------------| 
Db|---0--1--2--0--1--2---0-0-0-0-0--1--2--0--1--2--2b---| 
Ab|---0--------0---------0-0-0-0-0--------0-------------| 
Db|---0--------0---------0-0-0-0-0--------0-------------| 

Chorus 

Eb|---------------------------|--------------------------| 
Bb|---------------------------|--------------------------| 
Gb|---------------------------|--------------------------| 
Db|---------2-----------2--1--|--------6-----------6--5--| 
Ab|---------------------------|--------------------------| 
Db|---3--3-----3--3--3--------|--7--7-----7--7--7--------| 

Eb|---------------------------|--------------------------| 
Bb|---------------------------|--------------------------| 
Gb|---------------------------|--------------------------| 
Db|---------7-----------7--6--|--------3-----------3--2--| 
Ab|---------------------------|--------------------------| 
Db|---6--6-----6--6--6--------|--3--3-----3--3--3--------| 

 

Compartilhe esta música: novo

QR Code
Copiar