Intro 
e|---------------------------------| 
B|--10---8----10----5--5--5--------| 
G|--9----7----9-----4--4--4--------| 
D|--10---8----10----5--5--5--------| 
A|--8----6----8-----3--3--3--------| 
E|---------------------------------| 

e|-------------------------------------| 
B|--10--10----8--8----13---13--13--13--| 
G|--9---9-----7--7----12---12--12--12--| 
D|--10--10----8--8----13---13--13--13--| 
A|--8---8-----6--6----11---11--11--11--| 
E|-------------------------------------| 

Verse 
e|-----------------------------------------------| 
B|--11~---8~---11~---8~---7~---8-8-8--8-8-8------| 
G|--10~---7~---10~---7~---8~---7-7-7--7-7-7------|x2 
D|--11~---8~---11~---8~---9~---8-8-8--8-8-8------| 
A|--9~~---6~---9~~---6~---9~---6-6-6--6-6-6------| 
E|------------------------7~---------------------| 

e|------------------------------------------------------------------------------| 
B|--7~---11-11-11-11-11--11-11-11-11-11--11/-13-13-13-13-13--13\-11-11-11-11-11-| 
G|--8~---11-11-11-11-11--11-11-11-11-11--11/-13-13-13-13-13--13\-11-11-11-11-11-| 
D|--9~---x--x--x--x--x---x--x--x--x--x---x-/-x--x--x--x--x---x-\-x--x--x--x--x--| 
A|--9~---9--9--9--9--9---9--9--9--9--9---9-/-11-11-11-11-11--11\-9--9--9--9--9--| 
E|--7~--------------------------------------------------------------------------| 

Interlude 
e|------------------------| 
B|------------------------| 
G|------------------------| 
D|------------------------|x7 
A|------------------------| 
E|--11-11-11-11-11--11-9--| 

e|------------------------| 
B|------------------------| 
G|------------------------| 
D|------------------------| 
A|--11--9--8--------------| 
E|------------11--9-/////-| 

e|----------------------------------------------------------| 
B|----------------------------------------------------------| 
G|-------17~~------------17~~---------17~-17~~--------------| 
D|------------------------------------------------------18~-| 
A|-16-16--------16-16-16--------16-16---16----16-15~--------| 
E|----------------------------------------------------------| 

e|---------------------8~~----8~~---| 
B|---------------------8~~----8~~---| 
G|---------------------9~~----9~~---| 
D|---------------------10~----10~---| 
A|--11--9--8-----------10~----10~---| 
E|------------11--9----8~~----8~~---| 


Repeat All Above, then: 


Solo 
e|-------------------------------------------------------------| 
B|-------------------------------------------------------------| 
G|--15-13-17~----15-13-18--17~----15-13-17~----15--13-11-15~---| 
D|-------------------------------------------------------------| 
A|-------------------------------------------------------------| 
E|-------------------------------------------------------------| 

e|---------------------8~~----8~~---| 
B|---------------------8~~----8~~---| 
G|---------------------9~~----9~~---| 
D|---------------------10~----10~---| 
A|--11--9--8-----------10~----10~---| 
E|------------11--9----8~~----8~~---| 

e|-----------------------------------| 
B|-----------------------------------| 
G|-9-/-17-17-17-17-17-17-17-17-17-17-| 
D|-----------------------------------| 
A|-----------------------------------| 
E|-----------------------------------| 

e|----------------------------------| 
B|----------------------------------| 
G|--19--21--15--17--19--21--15--17--| 
D|----------------------------------| 
A|----------------------------------| 
E|----------------------------------| 

e|---------------------------------| 
B|---------------------------------| 
G|--19--20--19--17--15--13--15--17-| 
D|---------------------------------| 
A|---------------------------------| 
E|---------------------------------| 

e|----------------------------------| 
B|----------------------------------| 
G|--19--21--15--17--19--21--15--17--| 
D|----------------------------------| 
A|----------------------------------| 
E|----------------------------------| 

e|------------------------------------------| 
B|------------------------------------------| 
G|--19--20--19--17--15--13--12--10--8--7///-| 
D|------------------------------------------| 
A|------------------------------------------| 
E|------------------------------------------| 


Outro (synth) 
e|------7--------7--------7--------7-----------------------------------------------| 
B|--------8--------8--------8--------8---9--------9-9--------9-9--------9-9--------| 
G|-9--------9--------9--------9------------8-7--------8-7--------8-7--------8-7----| 
D|------------10-------10-------10-------------10---------10---------10---------10-|x2 
A|---------------------------------------------------------------------------------| 
E|---------------------------------------------------------------------------------| 

e|------7--------7--------7--------7--------7--------7--------7--------7-----------| 
B|--------8--------8--------8--------8--------8--------8--------8--------8---------| 
G|-9--------9--------9--------9--------9--------9--------9--------9----------------| 
D|------------10-------10-------10------10-------10-------10--------10-------------| 
A|---------------------------------------------------------------------------------| 
E|---------------------------------------------------------------------------------| 

Compartilhe esta música: novo

QR Code
Copiar